  0
SECTION
  2
HEADER
  9
$ACADVER
  1
AC1015
  9
$ACADMAINTVER
 70
     6
  9
$DWGCODEPAGE
  3
ANSI_1252
  9
$INSBASE
 10
0.0
 20
0.0
 30
0.0
  9
$EXTMIN
 10
0.0
 20
0.0
 30
0.0
  9
$EXTMAX
 10
700.552002
 20
400.395752
 30
2.0
  9
$LIMMIN
 10
0.0
 20
0.0
  9
$LIMMAX
 10
420.0
 20
297.0
  9
$ORTHOMODE
 70
     0
  9
$REGENMODE
 70
     1
  9
$FILLMODE
 70
     1
  9
$QTEXTMODE
 70
     0
  9
$MIRRTEXT
 70
     1
  9
$LTSCALE
 40
1.0
  9
$ATTMODE
 70
     1
  9
$TEXTSIZE
 40
2.5
  9
$TRACEWID
 40
1.0
  9
$TEXTSTYLE
  7
Standard
  9
$CLAYER
  8
0
  9
$CELTYPE
  6
ByLayer
  9
$CECOLOR
 62
   256
  9
$CELTSCALE
 40
1.0
  9
$DISPSILH
 70
     0
  9
$DIMSCALE
 40
1.0
  9
$DIMASZ
 40
2.5
  9
$DIMEXO
 40
0.625
  9
$DIMDLI
 40
3.75
  9
$DIMRND
 40
0.0
  9
$DIMDLE
 40
0.0
  9
$DIMEXE
 40
1.25
  9
$DIMTP
 40
0.0
  9
$DIMTM
 40
0.0
  9
$DIMTXT
 40
2.5
  9
$DIMCEN
 40
2.5
  9
$DIMTSZ
 40
0.0
  9
$DIMTOL
 70
     0
  9
$DIMLIM
 70
     0
  9
$DIMTIH
 70
     0
  9
$DIMTOH
 70
     0
  9
$DIMSE1
 70
     0
  9
$DIMSE2
 70
     0
  9
$DIMTAD
 70
     1
  9
$DIMZIN
 70
     8
  9
$DIMBLK
  1

  9
$DIMASO
 70
     1
  9
$DIMSHO
 70
     1
  9
$DIMPOST
  1

  9
$DIMAPOST
  1

  9
$DIMALT
 70
     0
  9
$DIMALTD
 70
     3
  9
$DIMALTF
 40
0.03937
  9
$DIMLFAC
 40
1.0
  9
$DIMTOFL
 70
     1
  9
$DIMTVP
 40
0.0
  9
$DIMTIX
 70
     0
  9
$DIMSOXD
 70
     0
  9
$DIMSAH
 70
     0
  9
$DIMBLK1
  1

  9
$DIMBLK2
  1

  9
$DIMSTYLE
  2

  9
$DIMCLRD
 70
     0
  9
$DIMCLRE
 70
     0
  9
$DIMCLRT
 70
     0
  9
$DIMTFAC
 40
1.0
  9
$DIMGAP
 40
0.625
  9
$DIMJUST
 70
     0
  9
$DIMSD1
 70
     0
  9
$DIMSD2
 70
     0
  9
$DIMTOLJ
 70
     0
  9
$DIMTZIN
 70
     8
  9
$DIMALTZ
 70
     0
  9
$DIMALTTZ
 70
     0
  9
$DIMUPT
 70
     0
  9
$DIMDEC
 70
     2
  9
$DIMTDEC
 70
     2
  9
$DIMALTU
 70
     2
  9
$DIMALTTD
 70
     3
  9
$DIMTXSTY
  7
Standard
  9
$DIMAUNIT
 70
     0
  9
$DIMADEC
 70
     0
  9
$DIMALTRND
 40
0.0
  9
$DIMAZIN
 70
     0
  9
$DIMDSEP
 70
    44
  9
$DIMATFIT
 70
     0
  9
$DIMFRAC
 70
     0
  9
$DIMLDRBLK
  1

  9
$DIMLUNIT
 70
     2
  9
$DIMLWD
 70
    -2
  9
$DIMLWE
 70
    -2
  9
$DIMTMOVE
 70
     0
  9
$LUNITS
 70
     2
  9
$LUPREC
 70
     4
  9
$SKETCHINC
 40
1.0
  9
$FILLETRAD
 40
2.5
  9
$AUNITS
 70
     0
  9
$AUPREC
 70
     0
  9
$MENU
  1
.
  9
$ELEVATION
 40
0.0
  9
$PELEVATION
 40
0.0
  9
$THICKNESS
 40
0.0
  9
$LIMCHECK
 70
     0
  9
$CHAMFERA
 40
2.5
  9
$CHAMFERB
 40
2.5
  9
$CHAMFERC
 40
0.0
  9
$CHAMFERD
 40
0.0
  9
$SKPOLY
 70
     0
  9
$TDCREATE
 40
0.000000000
  9
$TDUCREATE
 40
0.000000000
  9
$TDUPDATE
 40
0.000000000
  9
$TDUUPDATE
 40
0.000000000
  9
$TDINDWG
 40
0.0000000000
  9
$TDUSRTIMER
 40
0.0000000000
  9
$USRTIMER
 70
     1
  9
$ANGBASE
 50
0.0
  9
$ANGDIR
 70
     0
  9
$PDMODE
 70
     0
  9
$PDSIZE
 40
0.0
  9
$PLINEWID
 40
0.0
  9
$SPLFRAME
 70
     0
  9
$SPLINETYPE
 70
     6
  9
$SPLINESEGS
 70
     8
  9
$HANDSEED
  5
792
  9
$SURFTAB1
 70
     6
  9
$SURFTAB2
 70
     6
  9
$SURFTYPE
 70
     6
  9
$SURFU
 70
     6
  9
$SURFV
 70
     6
  9
$UCSBASE
  2

  9
$UCSNAME
  2

  9
$UCSORG
 10
0.0
 20
0.0
 30
0.0
  9
$UCSXDIR
 10
1.0
 20
0.0
 30
0.0
  9
$UCSYDIR
 10
0.0
 20
1.0
 30
0.0
  9
$UCSORTHOREF
  2

  9
$UCSORTHOVIEW
 70
     1
  9
$UCSORGTOP
 10
0.0
 20
0.0
 30
0.0
  9
$UCSORGBOTTOM
 10
0.0
 20
0.0
 30
0.0
  9
$UCSORGLEFT
 10
0.0
 20
0.0
 30
0.0
  9
$UCSORGRIGHT
 10
0.0
 20
0.0
 30
0.0
  9
$UCSORGFRONT
 10
0.0
 20
0.0
 30
0.0
  9
$UCSORGBACK
 10
0.0
 20
0.0
 30
0.0
  9
$PUCSBASE
  2

  9
$PUCSNAME
  2

  9
$PUCSORG
 10
0.0
 20
0.0
 30
0.0
  9
$PUCSXDIR
 10
1.0
 20
0.0
 30
0.0
  9
$PUCSYDIR
 10
0.0
 20
1.0
 30
0.0
  9
$PUCSORTHOREF
  2

  9
$PUCSORTHOVIEW
 70
     0
  9
$PUCSORGTOP
 10
0.0
 20
0.0
 30
0.0
  9
$PUCSORGBOTTOM
 10
0.0
 20
0.0
 30
0.0
  9
$PUCSORGLEFT
 10
0.0
 20
0.0
 30
0.0
  9
$PUCSORGRIGHT
 10
0.0
 20
0.0
 30
0.0
  9
$PUCSORGFRONT
 10
0.0
 20
0.0
 30
0.0
  9
$PUCSORGBACK
 10
0.0
 20
0.0
 30
0.0
  9
$USERI1
 70
     0
  9
$USERI2
 70
     0
  9
$USERI3
 70
     0
  9
$USERI4
 70
     0
  9
$USERI5
 70
     0
  9
$USERR1
 40
0.0
  9
$USERR2
 40
0.0
  9
$USERR3
 40
0.0
  9
$USERR4
 40
0.0
  9
$USERR5
 40
0.0
  9
$WORLDVIEW
 70
     1
  9
$SHADEDGE
 70
     3
  9
$SHADEDIF
 70
    70
  9
$TILEMODE
 70
     1
  9
$MAXACTVP
 70
    48
  9
$PINSBASE
 10
0.0
 20
0.0
 30
0.0
  9
$PLIMCHECK
 70
     0
  9
$PEXTMIN
 10
0.0
 20
0.0
 30
0.0
  9
$PEXTMAX
 10
700.552002
 20
400.395752
 30
2.0
  9
$PLIMMIN
 10
0.0
 20
0.0
  9
$PLIMMAX
 10
420.0
 20
297.0
  9
$UNITMODE
 70
     0
  9
$VISRETAIN
 70
     0
  9
$PLINEGEN
 70
     0
  9
$PSLTSCALE
 70
     1
  9
$TREEDEPTH
 70
  3020
  9
$CMLSTYLE
  2
Standard
  9
$CMLJUST
 70
     0
  9
$CMLSCALE
 40
20.0
  9
$PROXYGRAPHICS
 70
     1
  9
$MEASUREMENT
 70
     1
  9
$CELWEIGHT
370
    -1
  9
$ENDCAPS
280
     0
  9
$JOINSTYLE
280
     0
  9
$LWDISPLAY
290
     0
  9
$INSUNITS
 70
     0
  9
$HYPERLINKBASE
  1

  9
$STYLESHEET
  1

  9
$XEDIT
290
     1
  9
$CEPSNTYPE
380
     0
  9
$PSTYLEMODE
290
     0
  9
$FINGERPRINTGUID
  2

  9
$VERSIONGUID
  2

  9
$EXTNAMES
290
     0
  9
$PSVPSCALE
 40
0.0
  0
ENDSEC
  0
SECTION
  2
CLASSES
  0
CLASS
  1
LWPOLYLINE
  2
AcDbPolyline
  3
AutoCAD 2000
 90
        0
280
     0
281
     1
  0
CLASS
  1
IMAGE
  2
AcDbRasterImage
  3
ISM
 90
      127
280
     0
281
     1
  0
CLASS
  1
OLE2FRAME
  2
AcDbOle2Frame
  3
AutoCAD 2000
 90
        0
280
     0
281
     1
  0
CLASS
  1
HATCH
  2
AcDbHatch
  3
AutoCAD 2000
 90
        0
280
     0
281
     1
  0
CLASS
  1
DICTIONARYVAR
  2
AcDbDictionaryVar
  3
AutoCAD 2000
 90
        0
280
     0
281
     0
  0
CLASS
  1
RASTERVARIABLES
  2
AcDbRasterVariables
  3
ISM
 90
        0
280
     0
281
     0
  0
CLASS
  1
IMAGEDEF
  2
AcDbRasterImageDef
  3
ISM
 90
        0
280
     0
281
     0
  0
CLASS
  1
IMAGEDEF_REACTOR
  2
AcDbRasterImageDefReactor
  3
ISM
 90
        1
280
     0
281
     0
  0
CLASS
  1
IDBUFFER
  2
AcDbIdBuffer
  3
AutoCAD 2000
 90
        0
280
     0
281
     0
  0
CLASS
  1
SPATIAL_FILTER
  2
AcDbSpatialFilter
  3
AutoCAD 2000
 90
        0
280
     0
281
     0
  0
CLASS
  1
XRECORD
  2
AcDbXrecord
  3
AutoCAD 2000
 90
        0
280
     0
281
     0
  0
CLASS
  1
SORTENTSTABLE
  2
AcDbSortentsTable
  3
AutoCAD 2000
 90
        0
280
     0
281
     0
  0
CLASS
  1
LAYER_INDEX
  2
AcDbLayerIndex
  3
AutoCAD 2000
 90
        0
280
     0
281
     0
  0
CLASS
  1
SPATIAL_INDEX
  2
AcDbSpatialIndex
  3
AutoCAD 2000
 90
        0
280
     0
281
     0
  0
CLASS
  1
OBJECT_PTR
  2
CAseDLPNTableRecord
  3
"ASE-LPNTableRecord"
 90
        1
280
     0
281
     0
  0
CLASS
  1
LAYOUT
  2
AcDbLayout
  3
AutoCAD 2000
 90
        0
280
     0
281
     0
  0
CLASS
  1
PLOTSETTINGS
  2
AcDbPlotSettings
  3
AutoCAD 2000
 90
        0
280
     0
281
     0
  0
CLASS
  1
ACDBDICTIONARYWDFLT
  2
AcDbDictionaryWithDefault
  3
AutoCAD 2000
 90
        0
280
     0
281
     0
  0
CLASS
  1
ACDBPLACEHOLDER
  2
AcDbPlaceHolder
  3
AutoCAD 2000
 90
        0
280
     0
281
     0
  0
CLASS
  1
VBA_PROJECT
  2
AcDbVbaProject
  3
acadvba
 90
        0
280
     0
281
     0
  0
CLASS
  1
WIPEOUT
  2
AcDbWipeout
  3
WipeOut|AutoCAD Express Tool|expresstools@autodesk.com
 90
      127
280
     0
281
     1
  0
CLASS
  1
WIPEOUTVARIABLES
  2
AcDbWipeoutVariables
  3
WipeOut|AutoCAD Express Tool|expresstools@autodesk.com
 90
        0
280
     0
281
     0
  0
CLASS
  1
RTEXT
  2
RText
  3
RText|AutoCAD Express Tool|expresstools@autodesk.com
 90
        0
280
     0
281
     1
  0
CLASS
  1
ARCALIGNEDTEXT
  2
AcDbArcAlignedText
  3
ATEXT|AutoCAD Express Tool|expresstools@autodesk.com
 90
        0
280
     0
281
     1
  0
ENDSEC
  0
SECTION
  2
TABLES
  0
TABLE
  2
VPORT
  5
7
100
AcDbSymbolTable
 70
     1
  0
VPORT
  5
15
100
AcDbSymbolTableRecord
100
AcDbViewportTableRecord
  2
*ACTIVE
 70
     0
 10
0.0
 20
0.0
 11
1.0
 21
1.0
 12
6.591288
 22
4.579184
 13
0.0
 23
0.0
 14
1.0
 24
1.0
 15
0.0
 25
0.0
 16
0.0
 26
0.0
 36
1.0
 17
0.0
 27
0.0
 37
0.0
 40
9.158369
 41
0.688564
 42
50.0
 43
0.0
 44
0.0
 50
0.0
 51
0.0
 71
     0
 72
   100
 73
     1
 74
     1
 75
     0
 76
     0
 77
     0
 78
     0
281
     0
 65
     0
110
0.0
120
0.0
130
0.0
111
1.0
121
0.0
131
0.0
112
0.0
122
1.0
132
0.0
345
0
346
0
 79
     0
146
0.0
  0
ENDTAB
  0
TABLE
  2
LTYPE
  5
4
100
AcDbSymbolTable
 70
     4
  0
LTYPE
  5
11
100
AcDbSymbolTableRecord
100
AcDbLinetypeTableRecord
  2
ByBlock
 70
    64
  3

 72
    65
 73
     0
 40
0.0
  0
LTYPE
  5
12
100
AcDbSymbolTableRecord
100
AcDbLinetypeTableRecord
  2
ByLayer
 70
    64
  3

 72
    65
 73
     0
 40
0.0
  0
LTYPE
  5
13
100
AcDbSymbolTableRecord
100
AcDbLinetypeTableRecord
  2
Continuous
 70
    64
  3
Solid line
 72
    65
 73
     0
 40
0.0
  0
LTYPE
  5
24
100
AcDbSymbolTableRecord
100
AcDbLinetypeTableRecord
  2
DASHDOT
 70
     0
  3
 __ . __ . __ . __ . __ . __ . __ . 
 72
    65
 73
     4
 40
18.5
 49
12.0
 74
     0
 49
-3.0
 74
     0
 49
0.5
 74
     0
 49
-3.0
 74
     0
  0
ENDTAB
  0
TABLE
  2
LAYER
  5
2
100
AcDbSymbolTable
 70
     1
  0
LAYER
  5
14
100
AcDbSymbolTableRecord
100
AcDbLayerTableRecord
  2
0
 70
     0
 62
     7
  6
Continuous
290
     1
370
    -3
390
1D
  0
ENDTAB
  0
TABLE
  2
STYLE
  5
3
100
AcDbSymbolTable
 70
     1
  0
STYLE
  5
17
100
AcDbSymbolTableRecord
100
AcDbTextStyleTableRecord
  2
Standard
 70
     0
 40
0.0
 41
1.0
 50
0.0
 71
     0
 42
0.0
  3
txt
  4

  0
ENDTAB
  0
TABLE
  2
VIEW
  5
5
100
AcDbSymbolTable
 70
     0
  0
ENDTAB
  0
TABLE
  2
UCS
  5
6
100
AcDbSymbolTable
 70
     0
  0
ENDTAB
  0
TABLE
  2
APPID
  5
8
100
AcDbSymbolTable
 70
     1
  0
APPID
  5
16
100
AcDbSymbolTableRecord
100
AcDbRegAppTableRecord
  2
ACAD
 70
     0
  0
ENDTAB
  0
TABLE
  2
DIMSTYLE
  5
9
100
AcDbSymbolTable
 70
     1
100
AcDbDimStyleTable
 71
     0
  0
DIMSTYLE
105
18
100
AcDbSymbolTableRecord
100
AcDbDimStyleTableRecord
  2
Standard
 70
     0
  3

  4

 40
1.0
 41
0.18
 42
0.0625
 43
0.38
 44
0.18
 45
0.0
 46
0.0
 47
0.0
 48
0.0
 71
     0
 72
     0
 73
     1
 74
     1
 75
     0
 76
     0
 77
     0
 78
     0
 79
     0
140
0.18
141
0.09
142
0.0
143
25.4
144
1.0
145
0.0
146
1.0
147
0.09
148
0.0
170
     0
171
     2
172
     0
173
     0
174
     0
175
     0
176
     0
177
     0
178
     0
179
     0
271
     4
272
     4
273
     2
274
     2
275
     0
276
     0
277
     2
278
    46
279
     0
280
     0
281
     0
282
     0
283
     1
284
     0
285
     0
286
     0
288
     0
289
     3
340
17
341
0
342
0
343
0
344
0
371
    -2
372
    -2
  0
ENDTAB
  0
TABLE
  2
BLOCK_RECORD
  5
1
100
AcDbSymbolTable
 70
     0
  0
BLOCK_RECORD
  5
A
100
AcDbSymbolTableRecord
100
AcDbBlockTableRecord
  2
*MODEL_SPACE
340
20
  0
BLOCK_RECORD
  5
B
100
AcDbSymbolTableRecord
100
AcDbBlockTableRecord
  2
*PAPER_SPACE
340
21
  0
ENDTAB
  0
ENDSEC
  0
SECTION
  2
BLOCKS
  0
BLOCK
  5
D
100
AcDbEntity
  8
0
390
0
100
AcDbBlockBegin
  2
*MODEL_SPACE
 70
     0
 10
0.0
 20
0.0
 30
0.0
  3
*MODEL_SPACE
  1

  0
ENDBLK
  5
E
100
AcDbEntity
  8
0
390
0
100
AcDbBlockEnd
  0
BLOCK
  5
F
100
AcDbEntity
 67
     1
  8
0
390
0
100
AcDbBlockBegin
  2
*PAPER_SPACE
 70
     0
 10
0.0
 20
0.0
 30
0.0
  3
*PAPER_SPACE
  1

  0
ENDBLK
  5
10
100
AcDbEntity
 67
     1
  8
0
390
0
100
AcDbBlockEnd
  0
ENDSEC
  0
SECTION
  2
ENTITIES
  0
VIEWPORT
  5
791
100
AcDbEntity
 67
     1
  8
0
370
     0
390
0
 62
     0
 48
0.0
100
AcDbViewport
 10
0.0
 20
0.0
 30
0.0
 40
1000.0
 41
1000.0
 68
     1
 69
     1
 12
0.0
 22
0.0
 13
0.0
 23
0.0
 14
1.0
 24
1.0
 15
1.0
 25
1.0
 16
0.0
 26
0.0
 36
1.0
 17
0.0
 27
0.0
 37
0.0
 42
50.0
 43
0.0
 44
0.0
 45
1000.0
 50
0.0
 51
0.0
 72
   100
 90
        0
340
0
  1

281
     0
 71
     0
 74
     1
110
0.0
120
0.0
130
0.0
111
1.0
121
0.0
131
0.0
112
0.0
122
1.0
132
0.0
345
0
346
0
 79
     0
146
0.0
  0
POLYLINE
  5
25
100
AcDbEntity
  8
0
370
    13
390
0
 62
    94
100
AcDb2dPolyline
 66
     1
 10
0.0
 20
0.0
 30
0.0
 70
     1
 71
    11
  0
VERTEX
  5
26
100
AcDbEntity
  8
0
370
     0
390
0
100
AcDbVertex
100
AcDb2dVertex
 10
336.42981
 20
236.860382
 30
0.0
  0
VERTEX
  5
27
100
AcDbEntity
  8
0
370
     0
390
0
100
AcDbVertex
100
AcDb2dVertex
 10
336.883698
 20
236.860382
 30
0.0
  0
VERTEX
  5
28
100
AcDbEntity
  8
0
370
     0
390
0
100
AcDbVertex
100
AcDb2dVertex
 10
336.883698
 20
237.727814
 30
0.0
  0
VERTEX
  5
29
100
AcDbEntity
  8
0
370
     0
390
0
100
AcDbVertex
100
AcDb2dVertex
 10
337.382996
 20
237.727814
 30
0.0
  0
VERTEX
  5
2A
100
AcDbEntity
  8
0
370
     0
390
0
100
AcDbVertex
100
AcDb2dVertex
 10
337.382996
 20
238.131287
 30
0.0
  0
VERTEX
  5
2B
100
AcDbEntity
  8
0
370
     0
390
0
100
AcDbVertex
100
AcDb2dVertex
 10
336.883698
 20
238.131287
 30
0.0
  0
VERTEX
  5
2C
100
AcDbEntity
  8
0
370
     0
390
0
100
AcDbVertex
100
AcDb2dVertex
 10
336.883698
 20
240.284729
 30
0.0
  0
VERTEX
  5
2D
100
AcDbEntity
  8
0
370
     0
390
0
100
AcDbVertex
100
AcDb2dVertex
 10
336.424774
 20
240.284729
 30
0.0
  0
VERTEX
  5
2E
100
AcDbEntity
  8
0
370
     0
390
0
100
AcDbVertex
100
AcDb2dVertex
 10
334.891632
 20
238.171631
 30
0.0
  0
VERTEX
  5
2F
100
AcDbEntity
  8
0
370
     0
390
0
100
AcDbVertex
100
AcDb2dVertex
 10
334.891632
 20
237.727814
 30
0.0
  0
VERTEX
  5
30
100
AcDbEntity
  8
0
370
     0
390
0
100
AcDbVertex
100
AcDb2dVertex
 10
336.42981
 20
237.727814
 30
0.0
  0
SEQEND
  5
31
100
AcDbEntity
  8
0
370
     0
390
0
  0
POLYLINE
  5
32
100
AcDbEntity
  8
0
370
    13
390
0
 62
    94
100
AcDb2dPolyline
 66
     1
 10
0.0
 20
0.0
 30
0.0
 70
     1
 71
     3
  0
VERTEX
  5
33
100
AcDbEntity
  8
0
370
     0
390
0
100
AcDbVertex
100
AcDb2dVertex
 10
335.315277
 20
238.131287
 30
0.0
  0
VERTEX
  5
34
100
AcDbEntity
  8
0
370
     0
390
0
100
AcDbVertex
100
AcDb2dVertex
 10
336.42981
 20
239.699722
 30
0.0
  0
VERTEX
  5
35
100
AcDbEntity
  8
0
370
     0
390
0
100
AcDbVertex
100
AcDb2dVertex
 10
336.42981
 20
238.131287
 30
0.0
  0
SEQEND
  5
36
100
AcDbEntity
  8
0
370
     0
390
0
  0
POLYLINE
  5
37
100
AcDbEntity
  8
0
370
    13
390
0
 62
    94
100
AcDb2dPolyline
 66
     1
 10
0.0
 20
0.0
 30
0.0
 70
     1
 71
    35
  0
VERTEX
  5
38
100
AcDbEntity
  8
0
370
     0
390
0
100
AcDbVertex
100
AcDb2dVertex
 10
341.098846
 20
239.417297
 30
0.0
  0
VERTEX
  5
39
100
AcDbEntity
  8
0
370
     0
390
0
100
AcDbVertex
100
AcDb2dVertex
 10
341.003021
 20
239.825806
 30
0.0
  0
VERTEX
  5
3A
100
AcDbEntity
  8
0
370
     0
390
0
100
AcDbVertex
100
AcDb2dVertex
 10
340.781128
 20
240.128387
 30
0.0
  0
VERTEX
  5
3B
100
AcDbEntity
  8
0
370
     0
390
0
100
AcDbVertex
100
AcDb2dVertex
 10
340.438171
 20
240.320038
 30
0.0
  0
VERTEX
  5
3C
100
AcDbEntity
  8
0
370
     0
390
0
100
AcDbVertex
100
AcDb2dVertex
 10
339.994385
 20
240.38559
 30
0.0
  0
VERTEX
  5
3D
100
AcDbEntity
  8
0
370
     0
390
0
100
AcDbVertex
100
AcDb2dVertex
 10
339.696808
 20
240.350296
 30
0.0
  0
VERTEX
  5
3E
100
AcDbEntity
  8
0
370
     0
390
0
100
AcDbVertex
100
AcDb2dVertex
 10
339.439606
 20
240.254471
 30
0.0
  0
VERTEX
  5
3F
100
AcDbEntity
  8
0
370
     0
390
0
100
AcDbVertex
100
AcDb2dVertex
 10
339.212677
 20
240.098145
 30
0.0
  0
VERTEX
  5
40
100
AcDbEntity
  8
0
370
     0
390
0
100
AcDbVertex
100
AcDb2dVertex
 10
339.021027
 20
239.876236
 30
0.0
  0
VERTEX
  5
41
100
AcDbEntity
  8
0
370
     0
390
0
100
AcDbVertex
100
AcDb2dVertex
 10
338.86972
 20
239.598846
 30
0.0
  0
VERTEX
  5
42
100
AcDbEntity
  8
0
370
     0
390
0
100
AcDbVertex
100
AcDb2dVertex
 10
338.758789
 20
239.260956
 30
0.0
  0
VERTEX
  5
43
100
AcDbEntity
  8
0
370
     0
390
0
100
AcDbVertex
100
AcDb2dVertex
 10
338.688171
 20
238.862549
 30
0.0
  0
VERTEX
  5
44
100
AcDbEntity
  8
0
370
     0
390
0
100
AcDbVertex
100
AcDb2dVertex
 10
338.667999
 20
238.413696
 30
0.0
  0
VERTEX
  5
45
100
AcDbEntity
  8
0
370
     0
390
0
100
AcDbVertex
100
AcDb2dVertex
 10
338.748688
 20
237.697556
 30
0.0
  0
VERTEX
  5
46
100
AcDbEntity
  8
0
370
     0
390
0
100
AcDbVertex
100
AcDb2dVertex
 10
338.995819
 20
237.178101
 30
0.0
  0
VERTEX
  5
47
100
AcDbEntity
  8
0
370
     0
390
0
100
AcDbVertex
100
AcDb2dVertex
 10
339.394226
 20
236.865417
 30
0.0
  0
VERTEX
  5
48
100
AcDbEntity
  8
0
370
     0
390
0
100
AcDbVertex
100
AcDb2dVertex
 10
339.938904
 20
236.759521
 30
0.0
  0
VERTEX
  5
49
100
AcDbEntity
  8
0
370
     0
390
0
100
AcDbVertex
100
AcDb2dVertex
 10
340.428101
 20
236.850296
 30
0.0
  0
VERTEX
  5
4A
100
AcDbEntity
  8
0
370
     0
390
0
100
AcDbVertex
100
AcDb2dVertex
 10
340.8013
 20
237.087326
 30
0.0
  0
VERTEX
  5
4B
100
AcDbEntity
  8
0
370
     0
390
0
100
AcDbVertex
100
AcDb2dVertex
 10
341.043365
 20
237.460526
 30
0.0
  0
VERTEX
  5
4C
100
AcDbEntity
  8
0
370
     0
390
0
100
AcDbVertex
100
AcDb2dVertex
 10
341.129089
 20
237.934601
 30
0.0
  0
VERTEX
  5
4D
100
AcDbEntity
  8
0
370
     0
390
0
100
AcDbVertex
100
AcDb2dVertex
 10
341.043365
 20
238.413696
 30
0.0
  0
VERTEX
  5
4E
100
AcDbEntity
  8
0
370
     0
390
0
100
AcDbVertex
100
AcDb2dVertex
 10
340.811371
 20
238.78186
 30
0.0
  0
VERTEX
  5
4F
100
AcDbEntity
  8
0
370
     0
390
0
100
AcDbVertex
100
AcDb2dVertex
 10
340.453308
 20
239.01384
 30
0.0
  0
VERTEX
  5
50
100
AcDbEntity
  8
0
370
     0
390
0
100
AcDbVertex
100
AcDb2dVertex
 10
340.009491
 20
239.094528
 30
0.0
  0
VERTEX
  5
51
100
AcDbEntity
  8
0
370
     0
390
0
100
AcDbVertex
100
AcDb2dVertex
 10
339.530396
 20
238.993668
 30
0.0
  0
VERTEX
  5
52
100
AcDbEntity
  8
0
370
     0
390
0
100
AcDbVertex
100
AcDb2dVertex
 10
339.172333
 20
238.706207
 30
0.0
  0
VERTEX
  5
53
100
AcDbEntity
  8
0
370
     0
390
0
100
AcDbVertex
100
AcDb2dVertex
 10
339.247986
 20
239.260956
 30
0.0
  0
VERTEX
  5
54
100
AcDbEntity
  8
0
370
     0
390
0
100
AcDbVertex
100
AcDb2dVertex
 10
339.409363
 20
239.659363
 30
0.0
  0
VERTEX
  5
55
100
AcDbEntity
  8
0
370
     0
390
0
100
AcDbVertex
100
AcDb2dVertex
 10
339.656464
 20
239.896408
 30
0.0
  0
VERTEX
  5
56
100
AcDbEntity
  8
0
370
     0
390
0
100
AcDbVertex
100
AcDb2dVertex
 10
339.99942
 20
239.977097
 30
0.0
  0
VERTEX
  5
57
100
AcDbEntity
  8
0
370
     0
390
0
100
AcDbVertex
100
AcDb2dVertex
 10
340.251587
 20
239.936752
 30
0.0
  0
VERTEX
  5
58
100
AcDbEntity
  8
0
370
     0
390
0
100
AcDbVertex
100
AcDb2dVertex
 10
340.443207
 20
239.830841
 30
0.0
  0
VERTEX
  5
59
100
AcDbEntity
  8
0
370
     0
390
0
100
AcDbVertex
100
AcDb2dVertex
 10
340.569305
 20
239.654327
 30
0.0
  0
VERTEX
  5
5A
100
AcDbEntity
  8
0
370
     0
390
0
100
AcDbVertex
100
AcDb2dVertex
 10
340.634857
 20
239.417297
 30
0.0
  0
SEQEND
  5
5B
100
AcDbEntity
  8
0
370
     0
390
0
  0
POLYLINE
  5
5C
100
AcDbEntity
  8
0
370
    13
390
0
 62
    94
100
AcDb2dPolyline
 66
     1
 10
0.0
 20
0.0
 30
0.0
 70
     1
 71
    16
  0
VERTEX
  5
5D
100
AcDbEntity
  8
0
370
     0
390
0
100
AcDbVertex
100
AcDb2dVertex
 10
340.639893
 20
237.92955
 30
0.0
  0
VERTEX
  5
5E
100
AcDbEntity
  8
0
370
     0
390
0
100
AcDbVertex
100
AcDb2dVertex
 10
340.584442
 20
237.611816
 30
0.0
  0
VERTEX
  5
5F
100
AcDbEntity
  8
0
370
     0
390
0
100
AcDbVertex
100
AcDb2dVertex
 10
340.443207
 20
237.369751
 30
0.0
  0
VERTEX
  5
60
100
AcDbEntity
  8
0
370
     0
390
0
100
AcDbVertex
100
AcDb2dVertex
 10
340.216278
 20
237.208374
 30
0.0
  0
VERTEX
  5
61
100
AcDbEntity
  8
0
370
     0
390
0
100
AcDbVertex
100
AcDb2dVertex
 10
339.933868
 20
237.157928
 30
0.0
  0
VERTEX
  5
62
100
AcDbEntity
  8
0
370
     0
390
0
100
AcDbVertex
100
AcDb2dVertex
 10
339.636292
 20
237.208374
 30
0.0
  0
VERTEX
  5
63
100
AcDbEntity
  8
0
370
     0
390
0
100
AcDbVertex
100
AcDb2dVertex
 10
339.409363
 20
237.364716
 30
0.0
  0
VERTEX
  5
64
100
AcDbEntity
  8
0
370
     0
390
0
100
AcDbVertex
100
AcDb2dVertex
 10
339.263092
 20
237.606781
 30
0.0
  0
VERTEX
  5
65
100
AcDbEntity
  8
0
370
     0
390
0
100
AcDbVertex
100
AcDb2dVertex
 10
339.217712
 20
237.9245
 30
0.0
  0
VERTEX
  5
66
100
AcDbEntity
  8
0
370
     0
390
0
100
AcDbVertex
100
AcDb2dVertex
 10
339.268158
 20
238.237183
 30
0.0
  0
VERTEX
  5
67
100
AcDbEntity
  8
0
370
     0
390
0
100
AcDbVertex
100
AcDb2dVertex
 10
339.409363
 20
238.474213
 30
0.0
  0
VERTEX
  5
68
100
AcDbEntity
  8
0
370
     0
390
0
100
AcDbVertex
100
AcDb2dVertex
 10
339.641357
 20
238.625519
 30
0.0
  0
VERTEX
  5
69
100
AcDbEntity
  8
0
370
     0
390
0
100
AcDbVertex
100
AcDb2dVertex
 10
339.954041
 20
238.680984
 30
0.0
  0
VERTEX
  5
6A
100
AcDbEntity
  8
0
370
     0
390
0
100
AcDbVertex
100
AcDb2dVertex
 10
340.226349
 20
238.625519
 30
0.0
  0
VERTEX
  5
6B
100
AcDbEntity
  8
0
370
     0
390
0
100
AcDbVertex
100
AcDb2dVertex
 10
340.443207
 20
238.479248
 30
0.0
  0
VERTEX
  5
6C
100
AcDbEntity
  8
0
370
     0
390
0
100
AcDbVertex
100
AcDb2dVertex
 10
340.584442
 20
238.242218
 30
0.0
  0
SEQEND
  5
6D
100
AcDbEntity
  8
0
370
     0
390
0
  0
POLYLINE
  5
6E
100
AcDbEntity
  8
0
370
    13
390
0
 62
    94
100
AcDb2dPolyline
 66
     1
 10
0.0
 20
0.0
 30
0.0
 70
     1
 71
    53
  0
VERTEX
  5
6F
100
AcDbEntity
  8
0
370
     0
390
0
100
AcDbVertex
100
AcDb2dVertex
 10
342.353607
 20
237.959808
 30
0.0
  0
VERTEX
  5
70
100
AcDbEntity
  8
0
370
     0
390
0
100
AcDbVertex
100
AcDb2dVertex
 10
342.353607
 20
237.9245
 30
0.0
  0
VERTEX
  5
71
100
AcDbEntity
  8
0
370
     0
390
0
100
AcDbVertex
100
AcDb2dVertex
 10
342.434296
 20
237.440353
 30
0.0
  0
VERTEX
  5
72
100
AcDbEntity
  8
0
370
     0
390
0
100
AcDbVertex
100
AcDb2dVertex
 10
342.671326
 20
237.07724
 30
0.0
  0
VERTEX
  5
73
100
AcDbEntity
  8
0
370
     0
390
0
100
AcDbVertex
100
AcDb2dVertex
 10
343.044525
 20
236.845245
 30
0.0
  0
VERTEX
  5
74
100
AcDbEntity
  8
0
370
     0
390
0
100
AcDbVertex
100
AcDb2dVertex
 10
343.538757
 20
236.759521
 30
0.0
  0
VERTEX
  5
75
100
AcDbEntity
  8
0
370
     0
390
0
100
AcDbVertex
100
AcDb2dVertex
 10
344.063263
 20
236.845245
 30
0.0
  0
VERTEX
  5
76
100
AcDbEntity
  8
0
370
     0
390
0
100
AcDbVertex
100
AcDb2dVertex
 10
344.456635
 20
237.067154
 30
0.0
  0
VERTEX
  5
77
100
AcDbEntity
  8
0
370
     0
390
0
100
AcDbVertex
100
AcDb2dVertex
 10
344.708771
 20
237.420181
 30
0.0
  0
VERTEX
  5
78
100
AcDbEntity
  8
0
370
     0
390
0
100
AcDbVertex
100
AcDb2dVertex
 10
344.799561
 20
237.874069
 30
0.0
  0
VERTEX
  5
79
100
AcDbEntity
  8
0
370
     0
390
0
100
AcDbVertex
100
AcDb2dVertex
 10
344.759216
 20
238.171631
 30
0.0
  0
VERTEX
  5
7A
100
AcDbEntity
  8
0
370
     0
390
0
100
AcDbVertex
100
AcDb2dVertex
 10
344.648254
 20
238.413696
 30
0.0
  0
VERTEX
  5
7B
100
AcDbEntity
  8
0
370
     0
390
0
100
AcDbVertex
100
AcDb2dVertex
 10
344.466705
 20
238.600296
 30
0.0
  0
VERTEX
  5
7C
100
AcDbEntity
  8
0
370
     0
390
0
100
AcDbVertex
100
AcDb2dVertex
 10
344.22464
 20
238.736465
 30
0.0
  0
VERTEX
  5
7D
100
AcDbEntity
  8
0
370
     0
390
0
100
AcDbVertex
100
AcDb2dVertex
 10
344.552429
 20
239.008789
 30
0.0
  0
VERTEX
  5
7E
100
AcDbEntity
  8
0
370
     0
390
0
100
AcDbVertex
100
AcDb2dVertex
 10
344.668427
 20
239.442505
 30
0.0
  0
VERTEX
  5
7F
100
AcDbEntity
  8
0
370
     0
390
0
100
AcDbVertex
100
AcDb2dVertex
 10
344.592773
 20
239.835876
 30
0.0
  0
VERTEX
  5
80
100
AcDbEntity
  8
0
370
     0
390
0
100
AcDbVertex
100
AcDb2dVertex
 10
344.375916
 20
240.133438
 30
0.0
  0
VERTEX
  5
81
100
AcDbEntity
  8
0
370
     0
390
0
100
AcDbVertex
100
AcDb2dVertex
 10
344.022888
 20
240.320038
 30
0.0
  0
VERTEX
  5
82
100
AcDbEntity
  8
0
370
     0
390
0
100
AcDbVertex
100
AcDb2dVertex
 10
343.538757
 20
240.38559
 30
0.0
  0
VERTEX
  5
83
100
AcDbEntity
  8
0
370
     0
390
0
100
AcDbVertex
100
AcDb2dVertex
 10
343.084869
 20
240.304901
 30
0.0
  0
VERTEX
  5
84
100
AcDbEntity
  8
0
370
     0
390
0
100
AcDbVertex
100
AcDb2dVertex
 10
342.736877
 20
240.083008
 30
0.0
  0
VERTEX
  5
85
100
AcDbEntity
  8
0
370
     0
390
0
100
AcDbVertex
100
AcDb2dVertex
 10
342.509949
 20
239.72998
 30
0.0
  0
VERTEX
  5
86
100
AcDbEntity
  8
0
370
     0
390
0
100
AcDbVertex
100
AcDb2dVertex
 10
342.434296
 20
239.260956
 30
0.0
  0
VERTEX
  5
87
100
AcDbEntity
  8
0
370
     0
390
0
100
AcDbVertex
100
AcDb2dVertex
 10
342.434296
 20
239.225647
 30
0.0
  0
VERTEX
  5
88
100
AcDbEntity
  8
0
370
     0
390
0
100
AcDbVertex
100
AcDb2dVertex
 10
342.883118
 20
239.225647
 30
0.0
  0
VERTEX
  5
89
100
AcDbEntity
  8
0
370
     0
390
0
100
AcDbVertex
100
AcDb2dVertex
 10
342.923492
 20
239.548431
 30
0.0
  0
VERTEX
  5
8A
100
AcDbEntity
  8
0
370
     0
390
0
100
AcDbVertex
100
AcDb2dVertex
 10
343.054596
 20
239.780411
 30
0.0
  0
VERTEX
  5
8B
100
AcDbEntity
  8
0
370
     0
390
0
100
AcDbVertex
100
AcDb2dVertex
 10
343.266418
 20
239.921631
 30
0.0
  0
VERTEX
  5
8C
100
AcDbEntity
  8
0
370
     0
390
0
100
AcDbVertex
100
AcDb2dVertex
 10
343.563965
 20
239.972046
 30
0.0
  0
VERTEX
  5
8D
100
AcDbEntity
  8
0
370
     0
390
0
100
AcDbVertex
100
AcDb2dVertex
 10
343.826202
 20
239.931702
 30
0.0
  0
VERTEX
  5
8E
100
AcDbEntity
  8
0
370
     0
390
0
100
AcDbVertex
100
AcDb2dVertex
 10
344.017853
 20
239.825806
 30
0.0
  0
VERTEX
  5
8F
100
AcDbEntity
  8
0
370
     0
390
0
100
AcDbVertex
100
AcDb2dVertex
 10
344.13385
 20
239.654327
 30
0.0
  0
VERTEX
  5
90
100
AcDbEntity
  8
0
370
     0
390
0
100
AcDbVertex
100
AcDb2dVertex
 10
344.17923
 20
239.422333
 30
0.0
  0
VERTEX
  5
91
100
AcDbEntity
  8
0
370
     0
390
0
100
AcDbVertex
100
AcDb2dVertex
 10
344.13385
 20
239.175232
 30
0.0
  0
VERTEX
  5
92
100
AcDbEntity
  8
0
370
     0
390
0
100
AcDbVertex
100
AcDb2dVertex
 10
344.012817
 20
239.008789
 30
0.0
  0
VERTEX
  5
93
100
AcDbEntity
  8
0
370
     0
390
0
100
AcDbVertex
100
AcDb2dVertex
 10
343.800995
 20
238.907928
 30
0.0
  0
VERTEX
  5
94
100
AcDbEntity
  8
0
370
     0
390
0
100
AcDbVertex
100
AcDb2dVertex
 10
343.51355
 20
238.87767
 30
0.0
  0
VERTEX
  5
95
100
AcDbEntity
  8
0
370
     0
390
0
100
AcDbVertex
100
AcDb2dVertex
 10
343.316864
 20
238.882721
 30
0.0
  0
VERTEX
  5
96
100
AcDbEntity
  8
0
370
     0
390
0
100
AcDbVertex
100
AcDb2dVertex
 10
343.316864
 20
238.484299
 30
0.0
  0
VERTEX
  5
97
100
AcDbEntity
  8
0
370
     0
390
0
100
AcDbVertex
100
AcDb2dVertex
 10
343.563965
 20
238.494385
 30
0.0
  0
VERTEX
  5
98
100
AcDbEntity
  8
0
370
     0
390
0
100
AcDbVertex
100
AcDb2dVertex
 10
343.881683
 20
238.449005
 30
0.0
  0
VERTEX
  5
99
100
AcDbEntity
  8
0
370
     0
390
0
100
AcDbVertex
100
AcDb2dVertex
 10
344.118713
 20
238.327972
 30
0.0
  0
VERTEX
  5
9A
100
AcDbEntity
  8
0
370
     0
390
0
100
AcDbVertex
100
AcDb2dVertex
 10
344.259949
 20
238.131287
 30
0.0
  0
VERTEX
  5
9B
100
AcDbEntity
  8
0
370
     0
390
0
100
AcDbVertex
100
AcDb2dVertex
 10
344.310364
 20
237.874069
 30
0.0
  0
VERTEX
  5
9C
100
AcDbEntity
  8
0
370
     0
390
0
100
AcDbVertex
100
AcDb2dVertex
 10
344.254883
 20
237.581573
 30
0.0
  0
VERTEX
  5
9D
100
AcDbEntity
  8
0
370
     0
390
0
100
AcDbVertex
100
AcDb2dVertex
 10
344.108643
 20
237.364716
 30
0.0
  0
VERTEX
  5
9E
100
AcDbEntity
  8
0
370
     0
390
0
100
AcDbVertex
100
AcDb2dVertex
 10
343.876648
 20
237.228546
 30
0.0
  0
VERTEX
  5
9F
100
AcDbEntity
  8
0
370
     0
390
0
100
AcDbVertex
100
AcDb2dVertex
 10
343.569
 20
237.183151
 30
0.0
  0
VERTEX
  5
A0
100
AcDbEntity
  8
0
370
     0
390
0
100
AcDbVertex
100
AcDb2dVertex
 10
343.251282
 20
237.233582
 30
0.0
  0
VERTEX
  5
A1
100
AcDbEntity
  8
0
370
     0
390
0
100
AcDbVertex
100
AcDb2dVertex
 10
343.019287
 20
237.384888
 30
0.0
  0
VERTEX
  5
A2
100
AcDbEntity
  8
0
370
     0
390
0
100
AcDbVertex
100
AcDb2dVertex
 10
342.873047
 20
237.626953
 30
0.0
  0
VERTEX
  5
A3
100
AcDbEntity
  8
0
370
     0
390
0
100
AcDbVertex
100
AcDb2dVertex
 10
342.817566
 20
237.959808
 30
0.0
  0
SEQEND
  5
A4
100
AcDbEntity
  8
0
370
     0
390
0
  0
LINE
  5
A5
100
AcDbEntity
  8
0
370
    13
390
0
 62
    94
 48
0.172536
100
AcDbLine
 10
108.378906
 20
239.761841
 30
0.0
 11
108.378906
 21
232.860382
 31
0.0
210
0.0
220
0.0
230
1.0
  0
LINE
  5
A6
100
AcDbEntity
  8
0
370
    13
390
0
 62
    94
 48
0.172536
100
AcDbLine
 10
571.39801
 20
239.761841
 30
0.0
 11
571.39801
 21
232.860382
 31
0.0
210
0.0
220
0.0
230
1.0
  0
POLYLINE
  5
A7
100
AcDbEntity
  8
0
370
    13
390
0
 62
     7
100
AcDb2dPolyline
 66
     1
 10
0.0
 20
0.0
 30
0.0
 71
     3
  0
VERTEX
  5
A8
100
AcDbEntity
  8
0
370
     0
390
0
100
AcDbVertex
100
AcDb2dVertex
 10
110.31073
 20
235.378021
 30
0.0
  0
VERTEX
  5
A9
100
AcDbEntity
  8
0
370
     0
390
0
100
AcDbVertex
100
AcDb2dVertex
 10
108.378906
 20
234.860382
 30
0.0
  0
VERTEX
  5
AA
100
AcDbEntity
  8
0
370
     0
390
0
100
AcDbVertex
100
AcDb2dVertex
 10
110.31073
 20
234.342743
 30
0.0
  0
SEQEND
  5
AB
100
AcDbEntity
  8
0
370
     0
390
0
  0
POLYLINE
  5
AC
100
AcDbEntity
  8
0
370
    13
390
0
 62
     7
100
AcDb2dPolyline
 66
     1
 10
0.0
 20
0.0
 30
0.0
 71
     3
  0
VERTEX
  5
AD
100
AcDbEntity
  8
0
370
     0
390
0
100
AcDbVertex
100
AcDb2dVertex
 10
569.466187
 20
234.342743
 30
0.0
  0
VERTEX
  5
AE
100
AcDbEntity
  8
0
370
     0
390
0
100
AcDbVertex
100
AcDb2dVertex
 10
571.39801
 20
234.860382
 30
0.0
  0
VERTEX
  5
AF
100
AcDbEntity
  8
0
370
     0
390
0
100
AcDbVertex
100
AcDb2dVertex
 10
569.466187
 20
235.378021
 30
0.0
  0
SEQEND
  5
B0
100
AcDbEntity
  8
0
370
     0
390
0
  0
LINE
  5
B1
100
AcDbEntity
  8
0
370
    13
390
0
 62
    94
100
AcDbLine
 10
108.378906
 20
234.860382
 30
0.0
 11
571.39801
 21
234.860382
 31
0.0
210
0.0
220
0.0
230
1.0
  0
LINE
  5
B2
100
AcDbEntity
  8
0
370
    35
390
0
 62
     7
 48
0.012282
100
AcDbLine
 10
109.89801
 20
253.224869
 30
0.0
 11
109.89801
 21
252.733597
 31
0.0
210
0.0
220
0.0
230
1.0
  0
LINE
  5
B3
100
AcDbEntity
  8
0
370
    35
390
0
 62
     7
100
AcDbLine
 10
109.89801
 20
303.479218
 30
0.0
 11
109.89801
 21
253.224869
 31
0.0
210
0.0
220
0.0
230
1.0
  0
LINE
  5
B4
100
AcDbEntity
  8
0
370
    35
390
0
 62
     7
 48
0.006359
100
AcDbLine
 10
109.89801
 20
303.733582
 30
0.0
 11
109.89801
 21
303.479218
 31
0.0
210
0.0
220
0.0
230
1.0
  0
LINE
  5
B5
100
AcDbEntity
  8
0
370
    35
390
0
 62
     7
 48
0.002485
100
AcDbLine
 10
117.89801
 20
303.832977
 30
0.0
 11
117.89801
 21
303.733582
 31
0.0
210
0.0
220
0.0
230
1.0
  0
LINE
  5
B6
100
AcDbEntity
  8
0
370
    35
390
0
 62
     7
 48
0.002485
100
AcDbLine
 10
561.89801
 20
303.733582
 30
0.0
 11
561.89801
 21
303.832977
 31
0.0
210
0.0
220
0.0
230
1.0
  0
LINE
  5
B7
100
AcDbEntity
  8
0
370
    35
390
0
 62
     7
100
AcDbLine
 10
569.89801
 20
252.733597
 30
0.0
 11
109.89801
 21
252.733597
 31
0.0
210
0.0
220
0.0
230
1.0
  0
LINE
  5
B8
100
AcDbEntity
  8
0
370
    35
390
0
 62
     7
 48
0.012282
100
AcDbLine
 10
569.89801
 20
252.733597
 30
0.0
 11
569.89801
 21
253.224869
 31
0.0
210
0.0
220
0.0
230
1.0
  0
LINE
  5
B9
100
AcDbEntity
  8
0
370
    13
390
0
 62
     7
100
AcDbLine
 10
569.89801
 20
253.224869
 30
0.0
 11
109.89801
 21
253.224869
 31
0.0
210
0.0
220
0.0
230
1.0
  0
LINE
  5
BA
100
AcDbEntity
  8
0
370
    13
390
0
 62
     7
100
AcDbLine
 10
569.89801
 20
303.479218
 30
0.0
 11
109.89801
 21
303.479218
 31
0.0
210
0.0
220
0.0
230
1.0
  0
LINE
  5
BB
100
AcDbEntity
  8
0
370
    35
390
0
 62
     7
100
AcDbLine
 10
569.89801
 20
303.479218
 30
0.0
 11
569.89801
 21
253.224869
 31
0.0
210
0.0
220
0.0
230
1.0
  0
LINE
  5
BC
100
AcDbEntity
  8
0
370
    35
390
0
 62
     7
 48
0.006359
100
AcDbLine
 10
569.89801
 20
303.733582
 30
0.0
 11
569.89801
 21
303.479218
 31
0.0
210
0.0
220
0.0
230
1.0
  0
LINE
  5
BD
100
AcDbEntity
  8
0
370
    35
390
0
 62
     7
100
AcDbLine
 10
569.89801
 20
303.733582
 30
0.0
 11
109.89801
 21
303.733582
 31
0.0
210
0.0
220
0.0
230
1.0
  0
ARC
  5
BE
100
AcDbEntity
  8
0
370
    35
390
0
 62
     7
100
AcDbCircle
 10
109.678894
 20
252.933594
 30
0.0
 40
0.2
210
0.0
220
0.0
230
1.0
100
AcDbArc
 50
269.999997
 51
360.0
  0
ARC
  5
BF
100
AcDbEntity
  8
0
370
    35
390
0
 62
     7
100
AcDbCircle
 10
109.678894
 20
303.5336
 30
0.0
 40
0.2
210
0.0
220
0.0
230
1.0
100
AcDbArc
 50
0.0
 51
90.000003
  0
ELLIPSE
  5
C0
100
AcDbEntity
  8
0
370
    13
390
0
 62
     7
100
AcDbEllipse
 10
109.678894
 20
303.482727
 30
0.0
 11
-0.20001220703125
 21
0.0
 31
0.0
210
0.0
220
0.0
230
1.0
 40
0.017452
 41
1.5707963267948966
 42
3.1415926535897931
  0
LINE
  5
C1
100
AcDbEntity
  8
0
370
    35
390
0
 62
     7
 48
0.001272
100
AcDbLine
 10
109.878906
 20
303.5336
 30
0.0
 11
109.878906
 21
303.482727
 31
0.0
210
0.0
220
0.0
230
1.0
  0
LINE
  5
C2
100
AcDbEntity
  8
0
370
    13
390
0
 62
     7
 48
0.006359
100
AcDbLine
 10
109.678894
 20
303.733582
 30
0.0
 11
109.678894
 21
303.479218
 31
0.0
210
0.0
220
0.0
230
1.0
  0
ELLIPSE
  5
C3
100
AcDbEntity
  8
0
370
    13
390
0
 62
     7
100
AcDbEllipse
 10
109.678894
 20
253.228363
 30
0.0
 11
-0.20001220703125
 21
0.0
 31
0.0
210
0.0
220
0.0
230
1.0
 40
0.017452
 41
1.5707963267948968
 42
3.1415926535897936
  0
LINE
  5
C4
100
AcDbEntity
  8
0
370
    35
390
0
 62
     7
100
AcDbLine
 10
109.878906
 20
303.482727
 30
0.0
 11
109.878906
 21
253.228363
 31
0.0
210
0.0
220
0.0
230
1.0
  0
LINE
  5
C5
100
AcDbEntity
  8
0
370
    13
390
0
 62
     7
100
AcDbLine
 10
109.678894
 20
303.479218
 30
0.0
 11
109.678894
 21
253.224869
 31
0.0
210
0.0
220
0.0
230
1.0
  0
LINE
  5
C6
100
AcDbEntity
  8
0
370
    35
390
0
 62
     7
 48
0.007369
100
AcDbLine
 10
109.878906
 20
253.228363
 30
0.0
 11
109.878906
 21
252.933594
 31
0.0
210
0.0
220
0.0
230
1.0
  0
LINE
  5
C7
100
AcDbEntity
  8
0
370
    13
390
0
 62
     7
 48
0.012282
100
AcDbLine
 10
109.678894
 20
253.224869
 30
0.0
 11
109.678894
 21
252.733597
 31
0.0
210
0.0
220
0.0
230
1.0
  0
LINE
  5
C8
100
AcDbEntity
  8
0
370
    35
390
0
 62
     7
 48
0.027499
100
AcDbLine
 10
109.678894
 20
303.733582
 30
0.0
 11
108.578918
 21
303.733582
 31
0.0
210
0.0
220
0.0
230
1.0
  0
LINE
  5
C9
100
AcDbEntity
  8
0
370
    13
390
0
 62
     7
 48
0.006359
100
AcDbLine
 10
108.578918
 20
303.733582
 30
0.0
 11
108.578918
 21
303.479218
 31
0.0
210
0.0
220
0.0
230
1.0
  0
LINE
  5
CA
100
AcDbEntity
  8
0
370
    13
390
0
 62
     7
 48
0.027499
100
AcDbLine
 10
109.678894
 20
303.479218
 30
0.0
 11
108.578918
 21
303.479218
 31
0.0
210
0.0
220
0.0
230
1.0
  0
LINE
  5
CB
100
AcDbEntity
  8
0
370
    35
390
0
 62
     7
 48
0.027499
100
AcDbLine
 10
109.678894
 20
252.733597
 30
0.0
 11
108.578918
 21
252.733597
 31
0.0
210
0.0
220
0.0
230
1.0
  0
LINE
  5
CC
100
AcDbEntity
  8
0
370
    13
390
0
 62
     7
 48
0.027499
100
AcDbLine
 10
109.678894
 20
253.224869
 30
0.0
 11
108.578918
 21
253.224869
 31
0.0
210
0.0
220
0.0
230
1.0
  0
LINE
  5
CD
100
AcDbEntity
  8
0
370
    13
390
0
 62
     7
 48
0.012282
100
AcDbLine
 10
108.578918
 20
253.224869
 30
0.0
 11
108.578918
 21
252.733597
 31
0.0
210
0.0
220
0.0
230
1.0
  0
LINE
  5
CE
100
AcDbEntity
  8
0
370
    13
390
0
 62
     7
100
AcDbLine
 10
108.578918
 20
303.479218
 30
0.0
 11
108.578918
 21
253.224869
 31
0.0
210
0.0
220
0.0
230
1.0
  0
ARC
  5
CF
100
AcDbEntity
  8
0
370
    35
390
0
 62
     7
100
AcDbCircle
 10
108.578918
 20
252.933594
 30
0.0
 40
0.2
210
0.0
220
0.0
230
1.0
100
AcDbArc
 50
180.000005
 51
269.999997
  0
ARC
  5
D0
100
AcDbEntity
  8
0
370
    35
390
0
 62
     7
100
AcDbCircle
 10
108.578918
 20
303.5336
 30
0.0
 40
0.2
210
0.0
220
0.0
230
1.0
100
AcDbArc
 50
90.000003
 51
180.000005
  0
ELLIPSE
  5
D1
100
AcDbEntity
  8
0
370
    13
390
0
 62
     7
100
AcDbEllipse
 10
108.578918
 20
303.482727
 30
0.0
 11
-0.20001220703125
 21
0.0
 31
0.0
210
0.0
220
0.0
230
1.0
 40
0.017452
 41
0.0
 42
1.5707963267948968
  0
LINE
  5
D2
100
AcDbEntity
  8
0
370
    35
390
0
 62
     7
 48
0.001272
100
AcDbLine
 10
108.378906
 20
303.5336
 30
0.0
 11
108.378906
 21
303.482727
 31
0.0
210
0.0
220
0.0
230
1.0
  0
ELLIPSE
  5
D3
100
AcDbEntity
  8
0
370
    13
390
0
 62
     7
100
AcDbEllipse
 10
108.578918
 20
253.228363
 30
0.0
 11
-0.20001220703125
 21
0.0
 31
0.0
210
0.0
220
0.0
230
1.0
 40
0.017452
 41
0.0
 42
1.5707963267948963
  0
LINE
  5
D4
100
AcDbEntity
  8
0
370
    35
390
0
 62
     7
100
AcDbLine
 10
108.378906
 20
303.482727
 30
0.0
 11
108.378906
 21
253.228363
 31
0.0
210
0.0
220
0.0
230
1.0
  0
LINE
  5
D5
100
AcDbEntity
  8
0
370
    35
390
0
 62
     7
 48
0.007369
100
AcDbLine
 10
108.378906
 20
253.228363
 30
0.0
 11
108.378906
 21
252.933594
 31
0.0
210
0.0
220
0.0
230
1.0
  0
LINE
  5
D6
100
AcDbEntity
  8
0
370
    35
390
0
 62
     7
 48
0.000478
100
AcDbLine
 10
109.878906
 20
303.5336
 30
0.0
 11
109.89801
 21
303.5336
 31
0.0
210
0.0
220
0.0
230
1.0
  0
LINE
  5
D7
100
AcDbEntity
  8
0
370
    35
390
0
 62
     7
 48
0.001272
100
AcDbLine
 10
109.878906
 20
303.482727
 30
0.0
 11
109.878906
 21
303.5336
 31
0.0
210
0.0
220
0.0
230
1.0
  0
LINE
  5
D8
100
AcDbEntity
  8
0
370
    13
390
0
 62
     7
 48
0.000478
100
AcDbLine
 10
109.878906
 20
303.482727
 30
0.0
 11
109.89801
 21
303.482727
 31
0.0
210
0.0
220
0.0
230
1.0
  0
LINE
  5
D9
100
AcDbEntity
  8
0
370
    35
390
0
 62
     7
100
AcDbLine
 10
109.878906
 20
253.228363
 30
0.0
 11
109.878906
 21
303.482727
 31
0.0
210
0.0
220
0.0
230
1.0
  0
LINE
  5
DA
100
AcDbEntity
  8
0
370
    13
390
0
 62
     7
 48
0.000478
100
AcDbLine
 10
109.878906
 20
253.228363
 30
0.0
 11
109.89801
 21
253.228363
 31
0.0
210
0.0
220
0.0
230
1.0
  0
LINE
  5
DB
100
AcDbEntity
  8
0
370
    35
390
0
 62
     7
 48
0.007369
100
AcDbLine
 10
109.878906
 20
252.933594
 30
0.0
 11
109.878906
 21
253.228363
 31
0.0
210
0.0
220
0.0
230
1.0
  0
LINE
  5
DC
100
AcDbEntity
  8
0
370
    35
390
0
 62
     7
 48
0.000478
100
AcDbLine
 10
109.878906
 20
252.933594
 30
0.0
 11
109.89801
 21
252.933594
 31
0.0
210
0.0
220
0.0
230
1.0
  0
LINE
  5
DD
100
AcDbEntity
  8
0
370
    35
390
0
 62
     7
 48
0.004987
100
AcDbLine
 10
569.89801
 20
252.733597
 30
0.0
 11
569.89801
 21
252.93309
 31
0.0
210
0.0
220
0.0
230
1.0
  0
ARC
  5
DE
100
AcDbEntity
  8
0
370
    35
390
0
 62
     7
100
AcDbCircle
 10
570.098022
 20
252.933594
 30
0.0
 40
0.2
210
0.0
220
0.0
230
1.0
100
AcDbArc
 50
180.000005
 51
269.999997
  0
ARC
  5
DF
100
AcDbEntity
  8
0
370
    35
390
0
 62
     7
100
AcDbCircle
 10
570.098022
 20
303.5336
 30
0.0
 40
0.2
210
0.0
220
0.0
230
1.0
100
AcDbArc
 50
90.000003
 51
180.000005
  0
ELLIPSE
  5
E0
100
AcDbEntity
  8
0
370
    13
390
0
 62
     7
100
AcDbEllipse
 10
570.098022
 20
253.228363
 30
0.0
 11
0.20001220703125
 21
0.0
 31
0.0
210
0.0
220
0.0
230
1.0
 40
0.017452
 41
3.1415926535897931
 42
4.7123889803846897
  0
LINE
  5
E1
100
AcDbEntity
  8
0
370
    35
390
0
 62
     7
 48
0.007369
100
AcDbLine
 10
569.89801
 20
252.933594
 30
0.0
 11
569.89801
 21
253.228363
 31
0.0
210
0.0
220
0.0
230
1.0
  0
LINE
  5
E2
100
AcDbEntity
  8
0
370
    13
390
0
 62
     7
 48
0.012282
100
AcDbLine
 10
570.098022
 20
252.733597
 30
0.0
 11
570.098022
 21
253.224869
 31
0.0
210
0.0
220
0.0
230
1.0
  0
ELLIPSE
  5
E3
100
AcDbEntity
  8
0
370
    13
390
0
 62
     7
100
AcDbEllipse
 10
570.098022
 20
303.482727
 30
0.0
 11
0.20001220703125
 21
0.0
 31
0.0
210
0.0
220
0.0
230
1.0
 40
0.017452
 41
3.1415926535897931
 42
4.7123889803846897
  0
LINE
  5
E4
100
AcDbEntity
  8
0
370
    35
390
0
 62
     7
100
AcDbLine
 10
569.89801
 20
303.482727
 30
0.0
 11
569.89801
 21
253.228363
 31
0.0
210
0.0
220
0.0
230
1.0
  0
LINE
  5
E5
100
AcDbEntity
  8
0
370
    13
390
0
 62
     7
100
AcDbLine
 10
570.098022
 20
303.479218
 30
0.0
 11
570.098022
 21
253.224869
 31
0.0
210
0.0
220
0.0
230
1.0
  0
LINE
  5
E6
100
AcDbEntity
  8
0
370
    35
390
0
 62
     7
 48
0.001272
100
AcDbLine
 10
569.89801
 20
303.482727
 30
0.0
 11
569.89801
 21
303.5336
 31
0.0
210
0.0
220
0.0
230
1.0
  0
LINE
  5
E7
100
AcDbEntity
  8
0
370
    13
390
0
 62
     7
 48
0.006359
100
AcDbLine
 10
570.098022
 20
303.479218
 30
0.0
 11
570.098022
 21
303.733582
 31
0.0
210
0.0
220
0.0
230
1.0
  0
LINE
  5
E8
100
AcDbEntity
  8
0
370
    35
390
0
 62
     7
 48
0.027499
100
AcDbLine
 10
570.098022
 20
303.733582
 30
0.0
 11
571.197998
 21
303.733582
 31
0.0
210
0.0
220
0.0
230
1.0
  0
LINE
  5
E9
100
AcDbEntity
  8
0
370
    13
390
0
 62
     7
 48
0.027499
100
AcDbLine
 10
570.098022
 20
303.479218
 30
0.0
 11
571.197998
 21
303.479218
 31
0.0
210
0.0
220
0.0
230
1.0
  0
LINE
  5
EA
100
AcDbEntity
  8
0
370
    13
390
0
 62
     7
 48
0.006359
100
AcDbLine
 10
571.197998
 20
303.479218
 30
0.0
 11
571.197998
 21
303.733582
 31
0.0
210
0.0
220
0.0
230
1.0
  0
LINE
  5
EB
100
AcDbEntity
  8
0
370
    13
390
0
 62
     7
 48
0.027499
100
AcDbLine
 10
570.098022
 20
253.224869
 30
0.0
 11
571.197998
 21
253.224869
 31
0.0
210
0.0
220
0.0
230
1.0
  0
LINE
  5
EC
100
AcDbEntity
  8
0
370
    13
390
0
 62
     7
100
AcDbLine
 10
571.197998
 20
303.479218
 30
0.0
 11
571.197998
 21
253.224869
 31
0.0
210
0.0
220
0.0
230
1.0
  0
LINE
  5
ED
100
AcDbEntity
  8
0
370
    35
390
0
 62
     7
 48
0.027499
100
AcDbLine
 10
570.098022
 20
252.733597
 30
0.0
 11
571.197998
 21
252.733597
 31
0.0
210
0.0
220
0.0
230
1.0
  0
LINE
  5
EE
100
AcDbEntity
  8
0
370
    13
390
0
 62
     7
 48
0.012282
100
AcDbLine
 10
571.197998
 20
252.733597
 30
0.0
 11
571.197998
 21
253.224869
 31
0.0
210
0.0
220
0.0
230
1.0
  0
ARC
  5
EF
100
AcDbEntity
  8
0
370
    35
390
0
 62
     7
100
AcDbCircle
 10
571.197998
 20
252.933594
 30
0.0
 40
0.2
210
0.0
220
0.0
230
1.0
100
AcDbArc
 50
269.999997
 51
360.0
  0
ARC
  5
F0
100
AcDbEntity
  8
0
370
    35
390
0
 62
     7
100
AcDbCircle
 10
571.197998
 20
303.5336
 30
0.0
 40
0.2
210
0.0
220
0.0
230
1.0
100
AcDbArc
 50
0.0
 51
90.000003
  0
ELLIPSE
  5
F1
100
AcDbEntity
  8
0
370
    13
390
0
 62
     7
100
AcDbEllipse
 10
571.197998
 20
253.228363
 30
0.0
 11
0.20001220703125
 21
0.0
 31
0.0
210
0.0
220
0.0
230
1.0
 40
0.017452
 41
4.7123889803846897
 42
6.2831853071795871
  0
LINE
  5
F2
100
AcDbEntity
  8
0
370
    35
390
0
 62
     7
 48
0.007369
100
AcDbLine
 10
571.39801
 20
252.933594
 30
0.0
 11
571.39801
 21
253.228363
 31
0.0
210
0.0
220
0.0
230
1.0
  0
ELLIPSE
  5
F3
100
AcDbEntity
  8
0
370
    13
390
0
 62
     7
100
AcDbEllipse
 10
571.197998
 20
303.482727
 30
0.0
 11
0.20001220703125
 21
0.0
 31
0.0
210
0.0
220
0.0
230
1.0
 40
0.017452
 41
4.7123889803846897
 42
6.2831853071795862
  0
LINE
  5
F4
100
AcDbEntity
  8
0
370
    35
390
0
 62
     7
100
AcDbLine
 10
571.39801
 20
303.482727
 30
0.0
 11
571.39801
 21
253.228363
 31
0.0
210
0.0
220
0.0
230
1.0
  0
LINE
  5
F5
100
AcDbEntity
  8
0
370
    35
390
0
 62
     7
 48
0.001272
100
AcDbLine
 10
571.39801
 20
303.482727
 30
0.0
 11
571.39801
 21
303.5336
 31
0.0
210
0.0
220
0.0
230
1.0
  0
LINE
  5
F6
100
AcDbEntity
  8
0
370
    35
390
0
 62
     7
 48
0.007369
100
AcDbLine
 10
569.89801
 20
253.228363
 30
0.0
 11
569.89801
 21
252.933594
 31
0.0
210
0.0
220
0.0
230
1.0
  0
LINE
  5
F7
100
AcDbEntity
  8
0
370
    35
390
0
 62
     7
100
AcDbLine
 10
569.89801
 20
303.482727
 30
0.0
 11
569.89801
 21
253.228363
 31
0.0
210
0.0
220
0.0
230
1.0
  0
LINE
  5
F8
100
AcDbEntity
  8
0
370
    35
390
0
 62
     7
 48
0.001272
100
AcDbLine
 10
569.89801
 20
303.5336
 30
0.0
 11
569.89801
 21
303.482727
 31
0.0
210
0.0
220
0.0
230
1.0
  0
LINE
  5
F9
100
AcDbEntity
  8
0
370
    35
390
0
 62
     7
 48
0.073972
100
AcDbLine
 10
113.613342
 20
320.446289
 30
0.0
 11
110.65448
 21
320.446289
 31
0.0
210
0.0
220
0.0
230
1.0
  0
LINE
  5
FA
100
AcDbEntity
  8
0
370
    35
390
0
 62
     7
 48
0.026028
100
AcDbLine
 10
114.65448
 20
320.446289
 30
0.0
 11
113.613342
 21
320.446289
 31
0.0
210
0.0
220
0.0
230
1.0
  0
LINE
  5
FB
100
AcDbEntity
  8
0
370
    35
390
0
 62
     7
 48
0.0003
100
AcDbLine
 10
114.65448
 20
320.434296
 30
0.0
 11
114.65448
 21
320.446289
 31
0.0
210
0.0
220
0.0
230
1.0
  0
LINE
  5
FC
100
AcDbEntity
  8
0
370
    35
390
0
 62
     7
 48
0.0003
100
AcDbLine
 10
110.65448
 20
320.434296
 30
0.0
 11
110.65448
 21
320.446289
 31
0.0
210
0.0
220
0.0
230
1.0
  0
LINE
  5
FD
100
AcDbEntity
  8
0
370
    13
390
0
 62
     7
 48
0.000317
100
AcDbLine
 10
111.033447
 20
320.446289
 30
0.0
 11
111.033447
 21
320.433624
 31
0.0
210
0.0
220
0.0
230
1.0
  0
LINE
  5
FE
100
AcDbEntity
  8
0
370
    13
390
0
 62
     7
 48
0.000317
100
AcDbLine
 10
114.275452
 20
320.446289
 30
0.0
 11
114.275452
 21
320.433624
 31
0.0
210
0.0
220
0.0
230
1.0
  0
LINE
  5
FF
100
AcDbEntity
  8
0
370
    35
390
0
 62
     7
 48
0.073972
100
AcDbLine
 10
567.937744
 20
320.565247
 30
0.0
 11
564.978882
 21
320.565247
 31
0.0
210
0.0
220
0.0
230
1.0
  0
LINE
  5
100
100
AcDbEntity
  8
0
370
    35
390
0
 62
     7
 48
0.026028
100
AcDbLine
 10
568.978882
 20
320.565247
 30
0.0
 11
567.937744
 21
320.565247
 31
0.0
210
0.0
220
0.0
230
1.0
  0
LINE
  5
101
100
AcDbEntity
  8
0
370
    35
390
0
 62
     7
 48
0.003291
100
AcDbLine
 10
568.978882
 20
320.433624
 30
0.0
 11
568.978882
 21
320.565247
 31
0.0
210
0.0
220
0.0
230
1.0
  0
LINE
  5
102
100
AcDbEntity
  8
0
370
    35
390
0
 62
     7
 48
0.003291
100
AcDbLine
 10
564.978882
 20
320.433624
 30
0.0
 11
564.978882
 21
320.565247
 31
0.0
210
0.0
220
0.0
230
1.0
  0
LINE
  5
103
100
AcDbEntity
  8
0
370
    13
390
0
 62
     7
 48
0.003291
100
AcDbLine
 10
565.35791
 20
320.565247
 30
0.0
 11
565.35791
 21
320.433594
 31
0.0
210
0.0
220
0.0
230
1.0
  0
LINE
  5
104
100
AcDbEntity
  8
0
370
    13
390
0
 62
     7
 48
0.003291
100
AcDbLine
 10
568.599915
 20
320.565247
 30
0.0
 11
568.599915
 21
320.433594
 31
0.0
210
0.0
220
0.0
230
1.0
  0
LINE
  5
105
100
AcDbEntity
  8
0
370
    35
390
0
 62
     7
 48
0.0075
100
AcDbLine
 10
108.90448
 20
320.234283
 30
0.0
 11
108.90448
 21
319.934265
 31
0.0
210
0.0
220
0.0
230
1.0
  0
LINE
  5
106
100
AcDbEntity
  8
0
370
    35
390
0
 62
     7
 48
0.005
100
AcDbLine
 10
108.90448
 20
320.234283
 30
0.0
 11
108.90448
 21
320.434265
 31
0.0
210
0.0
220
0.0
230
1.0
  0
LINE
  5
107
100
AcDbEntity
  8
0
370
    35
390
0
 62
     7
 48
0.150766
100
AcDbLine
 10
109.623901
 20
320.434265
 30
0.0
 11
115.654541
 21
320.434265
 31
0.0
210
0.0
220
0.0
230
1.0
  0
LINE
  5
108
100
AcDbEntity
  8
0
370
    35
390
0
 62
     7
 48
0.027858
100
AcDbLine
 10
109.768799
 20
303.83429
 30
0.0
 11
108.65448
 21
303.83429
 31
0.0
210
0.0
220
0.0
230
1.0
  0
LINE
  5
109
100
AcDbEntity
  8
0
370
    35
390
0
 62
     7
 48
0.0125
100
AcDbLine
 10
108.65448
 20
303.83429
 30
0.0
 11
108.65448
 21
304.33429
 31
0.0
210
0.0
220
0.0
230
1.0
  0
LINE
  5
10A
100
AcDbEntity
  8
0
370
    35
390
0
 62
     7
 48
0.0125
100
AcDbLine
 10
109.768799
 20
303.83429
 30
0.0
 11
109.764404
 21
304.33429
 31
0.0
210
0.0
220
0.0
230
1.0
  0
LINE
  5
10B
100
AcDbEntity
  8
0
370
    35
390
0
 62
     7
 48
0.024998
100
AcDbLine
 10
116.65448
 20
320.434265
 30
0.0
 11
115.654541
 21
320.434265
 31
0.0
210
0.0
220
0.0
230
1.0
  0
LINE
  5
10C
100
AcDbEntity
  8
0
370
    35
390
0
 62
     7
 48
0.017986
100
AcDbLine
 10
108.90448
 20
320.434265
 30
0.0
 11
109.623901
 21
320.434265
 31
0.0
210
0.0
220
0.0
230
1.0
  0
LINE
  5
10D
100
AcDbEntity
  8
0
370
    35
390
0
 62
     7
 48
0.005
100
AcDbLine
 10
109.625671
 20
320.234283
 30
0.0
 11
109.623901
 21
320.434265
 31
0.0
210
0.0
220
0.0
230
1.0
  0
LINE
  5
10E
100
AcDbEntity
  8
0
370
    35
390
0
 62
     7
 48
0.01803
100
AcDbLine
 10
108.90448
 20
320.234283
 30
0.0
 11
109.625671
 21
320.234283
 31
0.0
210
0.0
220
0.0
230
1.0
  0
LINE
  5
10F
100
AcDbEntity
  8
0
370
    35
390
0
 62
     7
 48
0.007501
100
AcDbLine
 10
109.628296
 20
319.934265
 30
0.0
 11
109.625671
 21
320.234283
 31
0.0
210
0.0
220
0.0
230
1.0
  0
LINE
  5
110
100
AcDbEntity
  8
0
370
    35
390
0
 62
     7
 48
0.003431
100
AcDbLine
 10
109.741699
 20
306.935791
 30
0.0
 11
109.878906
 21
306.938202
 31
0.0
210
0.0
220
0.0
230
1.0
  0
LINE
  5
111
100
AcDbEntity
  8
0
370
    35
390
0
 62
     7
 48
0.004957
100
AcDbLine
 10
109.680664
 20
313.933807
 30
0.0
 11
109.878906
 21
313.930359
 31
0.0
210
0.0
220
0.0
230
1.0
  0
LINE
  5
112
100
AcDbEntity
  8
0
370
    35
390
0
 62
     7
 48
0.0375
100
AcDbLine
 10
108.128296
 20
319.934265
 30
0.0
 11
109.628296
 21
319.934265
 31
0.0
210
0.0
220
0.0
230
1.0
  0
LINE
  5
113
100
AcDbEntity
  8
0
370
    35
390
0
 62
     7
 48
0.0375
100
AcDbLine
 10
109.630066
 20
319.734283
 30
0.0
 11
108.130066
 21
319.734283
 31
0.0
210
0.0
220
0.0
230
1.0
  0
LINE
  5
114
100
AcDbEntity
  8
0
370
    35
390
0
 62
     7
 48
0.005
100
AcDbLine
 10
109.628296
 20
319.934265
 30
0.0
 11
109.630066
 21
319.734283
 31
0.0
210
0.0
220
0.0
230
1.0
  0
LINE
  5
115
100
AcDbEntity
  8
0
370
    35
390
0
 62
     7
 48
0.005
100
AcDbLine
 10
108.128296
 20
319.934265
 30
0.0
 11
108.130066
 21
319.734283
 31
0.0
210
0.0
220
0.0
230
1.0
  0
LINE
  5
116
100
AcDbEntity
  8
0
370
    35
390
0
 62
     7
 48
0.0375
100
AcDbLine
 10
108.264404
 20
304.33429
 30
0.0
 11
109.764404
 21
304.33429
 31
0.0
210
0.0
220
0.0
230
1.0
  0
LINE
  5
117
100
AcDbEntity
  8
0
370
    35
390
0
 62
     7
 48
0.385014
100
AcDbLine
 10
109.764404
 20
304.33429
 30
0.0
 11
109.630066
 21
319.734283
 31
0.0
210
0.0
220
0.0
230
1.0
  0
LINE
  5
118
100
AcDbEntity
  8
0
370
    35
390
0
 62
     7
 48
0.385014
100
AcDbLine
 10
108.130066
 20
319.734283
 30
0.0
 11
108.264404
 21
304.33429
 31
0.0
210
0.0
220
0.0
230
1.0
  0
LINE
  5
119
100
AcDbEntity
  8
0
370
    35
390
0
 62
     7
 48
0.005873
100
AcDbLine
 10
109.643982
 20
318.134277
 30
0.0
 11
109.878906
 21
318.134277
 31
0.0
210
0.0
220
0.0
230
1.0
  0
LINE
  5
11A
100
AcDbEntity
  8
0
370
    35
390
0
 62
     7
 48
0.005611
100
AcDbLine
 10
109.65448
 20
316.934265
 30
0.0
 11
109.878906
 21
316.934265
 31
0.0
210
0.0
220
0.0
230
1.0
  0
LINE
  5
11B
100
AcDbEntity
  8
0
370
    35
390
0
 62
     7
 48
0.005
100
AcDbLine
 10
570.728882
 20
320.233582
 30
0.0
 11
570.728882
 21
320.433594
 31
0.0
210
0.0
220
0.0
230
1.0
  0
LINE
  5
11C
100
AcDbEntity
  8
0
370
    35
390
0
 62
     7
 48
0.0075
100
AcDbLine
 10
570.728882
 20
320.233582
 30
0.0
 11
570.728882
 21
319.933594
 31
0.0
210
0.0
220
0.0
230
1.0
  0
LINE
  5
11D
100
AcDbEntity
  8
0
370
    35
390
0
 62
     7
 48
0.003262
100
AcDbLine
 10
570.009399
 20
320.433594
 30
0.0
 11
569.878906
 21
320.433594
 31
0.0
210
0.0
220
0.0
230
1.0
  0
LINE
  5
11E
100
AcDbEntity
  8
0
370
    35
390
0
 62
     7
 48
0.0125
100
AcDbLine
 10
569.864563
 20
303.833588
 30
0.0
 11
569.868896
 21
304.333588
 31
0.0
210
0.0
220
0.0
230
1.0
  0
LINE
  5
11F
100
AcDbEntity
  8
0
370
    35
390
0
 62
     7
 48
0.027858
100
AcDbLine
 10
570.978882
 20
303.833588
 30
0.0
 11
569.864563
 21
303.833588
 31
0.0
210
0.0
220
0.0
230
1.0
  0
LINE
  5
120
100
AcDbEntity
  8
0
370
    35
390
0
 62
     7
 48
0.0125
100
AcDbLine
 10
570.978882
 20
303.833588
 30
0.0
 11
570.978882
 21
304.333588
 31
0.0
210
0.0
220
0.0
230
1.0
  0
LINE
  5
121
100
AcDbEntity
  8
0
370
    35
390
0
 62
     7
 48
0.01803
100
AcDbLine
 10
570.728882
 20
320.233582
 30
0.0
 11
570.00769
 21
320.233582
 31
0.0
210
0.0
220
0.0
230
1.0
  0
LINE
  5
122
100
AcDbEntity
  8
0
370
    35
390
0
 62
     7
 48
0.017987
100
AcDbLine
 10
570.728882
 20
320.433594
 30
0.0
 11
570.009399
 21
320.433594
 31
0.0
210
0.0
220
0.0
230
1.0
  0
LINE
  5
123
100
AcDbEntity
  8
0
370
    35
390
0
 62
     7
 48
0.005
100
AcDbLine
 10
570.00769
 20
320.233582
 30
0.0
 11
570.009399
 21
320.433594
 31
0.0
210
0.0
220
0.0
230
1.0
  0
LINE
  5
124
100
AcDbEntity
  8
0
370
    35
390
0
 62
     7
 48
0.0075
100
AcDbLine
 10
570.005066
 20
319.933594
 30
0.0
 11
570.00769
 21
320.233582
 31
0.0
210
0.0
220
0.0
230
1.0
  0
LINE
  5
125
100
AcDbEntity
  8
0
370
    35
390
0
 62
     7
 48
0.000317
100
AcDbLine
 10
569.891602
 20
306.93512
 30
0.0
 11
569.878906
 21
306.935333
 31
0.0
210
0.0
220
0.0
230
1.0
  0
LINE
  5
126
100
AcDbEntity
  8
0
370
    35
390
0
 62
     7
 48
0.001845
100
AcDbLine
 10
569.952698
 20
313.933136
 30
0.0
 11
569.878906
 21
313.931854
 31
0.0
210
0.0
220
0.0
230
1.0
  0
LINE
  5
127
100
AcDbEntity
  8
0
370
    35
390
0
 62
     7
 48
0.0375
100
AcDbLine
 10
571.503296
 20
319.733582
 30
0.0
 11
570.003296
 21
319.733582
 31
0.0
210
0.0
220
0.0
230
1.0
  0
LINE
  5
128
100
AcDbEntity
  8
0
370
    35
390
0
 62
     7
 48
0.005001
100
AcDbLine
 10
571.505066
 20
319.933594
 30
0.0
 11
571.503296
 21
319.733582
 31
0.0
210
0.0
220
0.0
230
1.0
  0
LINE
  5
129
100
AcDbEntity
  8
0
370
    35
390
0
 62
     7
 48
0.0375
100
AcDbLine
 10
570.005066
 20
319.933594
 30
0.0
 11
571.505066
 21
319.933594
 31
0.0
210
0.0
220
0.0
230
1.0
  0
LINE
  5
12A
100
AcDbEntity
  8
0
370
    35
390
0
 62
     7
 48
0.005001
100
AcDbLine
 10
570.005066
 20
319.933594
 30
0.0
 11
570.003296
 21
319.733582
 31
0.0
210
0.0
220
0.0
230
1.0
  0
LINE
  5
12B
100
AcDbEntity
  8
0
370
    35
390
0
 62
     7
 48
0.0375
100
AcDbLine
 10
571.368896
 20
304.333588
 30
0.0
 11
569.868896
 21
304.333588
 31
0.0
210
0.0
220
0.0
230
1.0
  0
LINE
  5
12C
100
AcDbEntity
  8
0
370
    35
390
0
 62
     7
 48
0.385015
100
AcDbLine
 10
571.503296
 20
319.733582
 30
0.0
 11
571.368896
 21
304.333588
 31
0.0
210
0.0
220
0.0
230
1.0
  0
LINE
  5
12D
100
AcDbEntity
  8
0
370
    35
390
0
 62
     7
 48
0.385015
100
AcDbLine
 10
569.868896
 20
304.333588
 30
0.0
 11
570.003296
 21
319.733582
 31
0.0
210
0.0
220
0.0
230
1.0
  0
LINE
  5
12E
100
AcDbEntity
  8
0
370
    35
390
0
 62
     7
 48
0.002762
100
AcDbLine
 10
569.98938
 20
318.133606
 30
0.0
 11
569.878906
 21
318.133606
 31
0.0
210
0.0
220
0.0
230
1.0
  0
LINE
  5
12F
100
AcDbEntity
  8
0
370
    35
390
0
 62
     7
 48
0.002499
100
AcDbLine
 10
569.978882
 20
316.933594
 30
0.0
 11
569.878906
 21
316.933594
 31
0.0
210
0.0
220
0.0
230
1.0
  0
LINE
  5
130
100
AcDbEntity
  8
0
370
    35
390
0
 62
     7
 48
0.005
100
AcDbLine
 10
569.878906
 20
320.233582
 30
0.0
 11
569.878906
 21
320.433594
 31
0.0
210
0.0
220
0.0
230
1.0
  0
LINE
  5
131
100
AcDbEntity
  8
0
370
    35
390
0
 62
     7
 48
0.0075
100
AcDbLine
 10
569.878906
 20
320.233582
 30
0.0
 11
569.878906
 21
319.933594
 31
0.0
210
0.0
220
0.0
230
1.0
  0
LINE
  5
132
100
AcDbEntity
  8
0
370
    35
390
0
 62
     7
 48
0.005
100
AcDbLine
 10
569.878906
 20
319.933594
 30
0.0
 11
569.878906
 21
319.733582
 31
0.0
210
0.0
220
0.0
230
1.0
  0
LINE
  5
133
100
AcDbEntity
  8
0
370
    35
390
0
 62
     7
 48
0.385
100
AcDbLine
 10
569.878906
 20
304.333588
 30
0.0
 11
569.878906
 21
319.733582
 31
0.0
210
0.0
220
0.0
230
1.0
  0
LINE
  5
134
100
AcDbEntity
  8
0
370
    35
390
0
 62
     7
 48
0.0125
100
AcDbLine
 10
569.878906
 20
304.333588
 30
0.0
 11
569.878906
 21
303.833588
 31
0.0
210
0.0
220
0.0
230
1.0
  0
LINE
  5
135
100
AcDbEntity
  8
0
370
    35
390
0
 62
     7
100
AcDbLine
 10
109.878906
 20
320.233582
 30
0.0
 11
569.878906
 21
320.233582
 31
0.0
210
0.0
220
0.0
230
1.0
  0
LINE
  5
136
100
AcDbEntity
  8
0
370
    35
390
0
 62
     7
 48
0.0075
100
AcDbLine
 10
109.878906
 20
320.233582
 30
0.0
 11
109.878906
 21
319.933594
 31
0.0
210
0.0
220
0.0
230
1.0
  0
LINE
  5
137
100
AcDbEntity
  8
0
370
    35
390
0
 62
     7
100
AcDbLine
 10
109.878906
 20
319.933594
 30
0.0
 11
569.878906
 21
319.933594
 31
0.0
210
0.0
220
0.0
230
1.0
  0
LINE
  5
138
100
AcDbEntity
  8
0
370
    35
390
0
 62
     7
 48
0.005
100
AcDbLine
 10
109.878906
 20
319.933594
 30
0.0
 11
109.878906
 21
319.733582
 31
0.0
210
0.0
220
0.0
230
1.0
  0
LINE
  5
139
100
AcDbEntity
  8
0
370
    35
390
0
 62
     7
100
AcDbLine
 10
109.878906
 20
319.733582
 30
0.0
 11
569.878906
 21
319.733582
 31
0.0
210
0.0
220
0.0
230
1.0
  0
LINE
  5
13A
100
AcDbEntity
  8
0
370
    35
390
0
 62
     7
100
AcDbLine
 10
109.878906
 20
304.333588
 30
0.0
 11
569.878906
 21
304.333588
 31
0.0
210
0.0
220
0.0
230
1.0
  0
LINE
  5
13B
100
AcDbEntity
  8
0
370
    35
390
0
 62
     7
 48
0.0125
100
AcDbLine
 10
109.878906
 20
304.333588
 30
0.0
 11
109.878906
 21
303.833588
 31
0.0
210
0.0
220
0.0
230
1.0
  0
LINE
  5
13C
100
AcDbEntity
  8
0
370
    35
390
0
 62
     7
100
AcDbLine
 10
109.878906
 20
303.833588
 30
0.0
 11
569.878906
 21
303.833588
 31
0.0
210
0.0
220
0.0
230
1.0
  0
LINE
  5
13D
100
AcDbEntity
  8
0
370
    35
390
0
 62
     7
 48
0.385
100
AcDbLine
 10
109.878906
 20
304.333588
 30
0.0
 11
109.878906
 21
319.733582
 31
0.0
210
0.0
220
0.0
230
1.0
  0
LINE
  5
13E
100
AcDbEntity
  8
0
370
    35
390
0
 62
     7
100
AcDbLine
 10
109.878906
 20
320.433594
 30
0.0
 11
569.878906
 21
320.433594
 31
0.0
210
0.0
220
0.0
230
1.0
  0
LINE
  5
13F
100
AcDbEntity
  8
0
370
    35
390
0
 62
     7
 48
0.005
100
AcDbLine
 10
109.878906
 20
320.233582
 30
0.0
 11
109.878906
 21
320.433594
 31
0.0
210
0.0
220
0.0
230
1.0
  0
POLYLINE
  5
140
100
AcDbEntity
  8
0
370
    13
390
0
 62
    94
100
AcDb2dPolyline
 66
     1
 10
0.0
 20
0.0
 30
0.0
 70
     1
 71
    35
  0
VERTEX
  5
141
100
AcDbEntity
  8
0
370
     0
390
0
100
AcDbVertex
100
AcDb2dVertex
 10
62.435017
 20
282.189941
 30
0.0
  0
VERTEX
  5
142
100
AcDbEntity
  8
0
370
     0
390
0
100
AcDbVertex
100
AcDb2dVertex
 10
62.026516
 20
282.094116
 30
0.0
  0
VERTEX
  5
143
100
AcDbEntity
  8
0
370
     0
390
0
100
AcDbVertex
100
AcDb2dVertex
 10
61.723923
 20
281.872223
 30
0.0
  0
VERTEX
  5
144
100
AcDbEntity
  8
0
370
     0
390
0
100
AcDbVertex
100
AcDb2dVertex
 10
61.53228
 20
281.529266
 30
0.0
  0
VERTEX
  5
145
100
AcDbEntity
  8
0
370
     0
390
0
100
AcDbVertex
100
AcDb2dVertex
 10
61.466717
 20
281.08548
 30
0.0
  0
VERTEX
  5
146
100
AcDbEntity
  8
0
370
     0
390
0
100
AcDbVertex
100
AcDb2dVertex
 10
61.502022
 20
280.787903
 30
0.0
  0
VERTEX
  5
147
100
AcDbEntity
  8
0
370
     0
390
0
100
AcDbVertex
100
AcDb2dVertex
 10
61.597839
 20
280.530701
 30
0.0
  0
VERTEX
  5
148
100
AcDbEntity
  8
0
370
     0
390
0
100
AcDbVertex
100
AcDb2dVertex
 10
61.754181
 20
280.303772
 30
0.0
  0
VERTEX
  5
149
100
AcDbEntity
  8
0
370
     0
390
0
100
AcDbVertex
100
AcDb2dVertex
 10
61.976082
 20
280.112122
 30
0.0
  0
VERTEX
  5
14A
100
AcDbEntity
  8
0
370
     0
390
0
100
AcDbVertex
100
AcDb2dVertex
 10
62.253464
 20
279.960815
 30
0.0
  0
VERTEX
  5
14B
100
AcDbEntity
  8
0
370
     0
390
0
100
AcDbVertex
100
AcDb2dVertex
 10
62.591358
 20
279.849884
 30
0.0
  0
VERTEX
  5
14C
100
AcDbEntity
  8
0
370
     0
390
0
100
AcDbVertex
100
AcDb2dVertex
 10
62.989773
 20
279.779266
 30
0.0
  0
VERTEX
  5
14D
100
AcDbEntity
  8
0
370
     0
390
0
100
AcDbVertex
100
AcDb2dVertex
 10
63.438622
 20
279.759094
 30
0.0
  0
VERTEX
  5
14E
100
AcDbEntity
  8
0
370
     0
390
0
100
AcDbVertex
100
AcDb2dVertex
 10
64.154755
 20
279.839783
 30
0.0
  0
VERTEX
  5
14F
100
AcDbEntity
  8
0
370
     0
390
0
100
AcDbVertex
100
AcDb2dVertex
 10
64.67421
 20
280.086914
 30
0.0
  0
VERTEX
  5
150
100
AcDbEntity
  8
0
370
     0
390
0
100
AcDbVertex
100
AcDb2dVertex
 10
64.986893
 20
280.485321
 30
0.0
  0
VERTEX
  5
151
100
AcDbEntity
  8
0
370
     0
390
0
100
AcDbVertex
100
AcDb2dVertex
 10
65.092796
 20
281.029999
 30
0.0
  0
VERTEX
  5
152
100
AcDbEntity
  8
0
370
     0
390
0
100
AcDbVertex
100
AcDb2dVertex
 10
65.002022
 20
281.519196
 30
0.0
  0
VERTEX
  5
153
100
AcDbEntity
  8
0
370
     0
390
0
100
AcDbVertex
100
AcDb2dVertex
 10
64.764984
 20
281.892395
 30
0.0
  0
VERTEX
  5
154
100
AcDbEntity
  8
0
370
     0
390
0
100
AcDbVertex
100
AcDb2dVertex
 10
64.391792
 20
282.13446
 30
0.0
  0
VERTEX
  5
155
100
AcDbEntity
  8
0
370
     0
390
0
100
AcDbVertex
100
AcDb2dVertex
 10
63.917725
 20
282.220184
 30
0.0
  0
VERTEX
  5
156
100
AcDbEntity
  8
0
370
     0
390
0
100
AcDbVertex
100
AcDb2dVertex
 10
63.438622
 20
282.13446
 30
0.0
  0
VERTEX
  5
157
100
AcDbEntity
  8
0
370
     0
390
0
100
AcDbVertex
100
AcDb2dVertex
 10
63.070465
 20
281.902466
 30
0.0
  0
VERTEX
  5
158
100
AcDbEntity
  8
0
370
     0
390
0
100
AcDbVertex
100
AcDb2dVertex
 10
62.838478
 20
281.544403
 30
0.0
  0
VERTEX
  5
159
100
AcDbEntity
  8
0
370
     0
390
0
100
AcDbVertex
100
AcDb2dVertex
 10
62.757782
 20
281.100586
 30
0.0
  0
VERTEX
  5
15A
100
AcDbEntity
  8
0
370
     0
390
0
100
AcDbVertex
100
AcDb2dVertex
 10
62.85865
 20
280.62149
 30
0.0
  0
VERTEX
  5
15B
100
AcDbEntity
  8
0
370
     0
390
0
100
AcDbVertex
100
AcDb2dVertex
 10
63.146111
 20
280.263428
 30
0.0
  0
VERTEX
  5
15C
100
AcDbEntity
  8
0
370
     0
390
0
100
AcDbVertex
100
AcDb2dVertex
 10
62.591358
 20
280.339081
 30
0.0
  0
VERTEX
  5
15D
100
AcDbEntity
  8
0
370
     0
390
0
100
AcDbVertex
100
AcDb2dVertex
 10
62.19294
 20
280.500458
 30
0.0
  0
VERTEX
  5
15E
100
AcDbEntity
  8
0
370
     0
390
0
100
AcDbVertex
100
AcDb2dVertex
 10
61.95591
 20
280.747559
 30
0.0
  0
VERTEX
  5
15F
100
AcDbEntity
  8
0
370
     0
390
0
100
AcDbVertex
100
AcDb2dVertex
 10
61.875221
 20
281.090515
 30
0.0
  0
VERTEX
  5
160
100
AcDbEntity
  8
0
370
     0
390
0
100
AcDbVertex
100
AcDb2dVertex
 10
61.915565
 20
281.342682
 30
0.0
  0
VERTEX
  5
161
100
AcDbEntity
  8
0
370
     0
390
0
100
AcDbVertex
100
AcDb2dVertex
 10
62.021473
 20
281.534302
 30
0.0
  0
VERTEX
  5
162
100
AcDbEntity
  8
0
370
     0
390
0
100
AcDbVertex
100
AcDb2dVertex
 10
62.197987
 20
281.6604
 30
0.0
  0
VERTEX
  5
163
100
AcDbEntity
  8
0
370
     0
390
0
100
AcDbVertex
100
AcDb2dVertex
 10
62.435017
 20
281.725952
 30
0.0
  0
SEQEND
  5
164
100
AcDbEntity
  8
0
370
     0
390
0
  0
POLYLINE
  5
165
100
AcDbEntity
  8
0
370
    13
390
0
 62
    94
100
AcDb2dPolyline
 66
     1
 10
0.0
 20
0.0
 30
0.0
 70
     1
 71
    16
  0
VERTEX
  5
166
100
AcDbEntity
  8
0
370
     0
390
0
100
AcDbVertex
100
AcDb2dVertex
 10
63.922768
 20
281.730988
 30
0.0
  0
VERTEX
  5
167
100
AcDbEntity
  8
0
370
     0
390
0
100
AcDbVertex
100
AcDb2dVertex
 10
64.240494
 20
281.675537
 30
0.0
  0
VERTEX
  5
168
100
AcDbEntity
  8
0
370
     0
390
0
100
AcDbVertex
100
AcDb2dVertex
 10
64.482567
 20
281.534302
 30
0.0
  0
VERTEX
  5
169
100
AcDbEntity
  8
0
370
     0
390
0
100
AcDbVertex
100
AcDb2dVertex
 10
64.643951
 20
281.307373
 30
0.0
  0
VERTEX
  5
16A
100
AcDbEntity
  8
0
370
     0
390
0
100
AcDbVertex
100
AcDb2dVertex
 10
64.694382
 20
281.024963
 30
0.0
  0
VERTEX
  5
16B
100
AcDbEntity
  8
0
370
     0
390
0
100
AcDbVertex
100
AcDb2dVertex
 10
64.643951
 20
280.727386
 30
0.0
  0
VERTEX
  5
16C
100
AcDbEntity
  8
0
370
     0
390
0
100
AcDbVertex
100
AcDb2dVertex
 10
64.48761
 20
280.500458
 30
0.0
  0
VERTEX
  5
16D
100
AcDbEntity
  8
0
370
     0
390
0
100
AcDbVertex
100
AcDb2dVertex
 10
64.245537
 20
280.354187
 30
0.0
  0
VERTEX
  5
16E
100
AcDbEntity
  8
0
370
     0
390
0
100
AcDbVertex
100
AcDb2dVertex
 10
63.927811
 20
280.308807
 30
0.0
  0
VERTEX
  5
16F
100
AcDbEntity
  8
0
370
     0
390
0
100
AcDbVertex
100
AcDb2dVertex
 10
63.615135
 20
280.359253
 30
0.0
  0
VERTEX
  5
170
100
AcDbEntity
  8
0
370
     0
390
0
100
AcDbVertex
100
AcDb2dVertex
 10
63.378101
 20
280.500458
 30
0.0
  0
VERTEX
  5
171
100
AcDbEntity
  8
0
370
     0
390
0
100
AcDbVertex
100
AcDb2dVertex
 10
63.226807
 20
280.732452
 30
0.0
  0
VERTEX
  5
172
100
AcDbEntity
  8
0
370
     0
390
0
100
AcDbVertex
100
AcDb2dVertex
 10
63.171329
 20
281.045105
 30
0.0
  0
VERTEX
  5
173
100
AcDbEntity
  8
0
370
     0
390
0
100
AcDbVertex
100
AcDb2dVertex
 10
63.226807
 20
281.317444
 30
0.0
  0
VERTEX
  5
174
100
AcDbEntity
  8
0
370
     0
390
0
100
AcDbVertex
100
AcDb2dVertex
 10
63.373058
 20
281.534302
 30
0.0
  0
VERTEX
  5
175
100
AcDbEntity
  8
0
370
     0
390
0
100
AcDbVertex
100
AcDb2dVertex
 10
63.610092
 20
281.675537
 30
0.0
  0
SEQEND
  5
176
100
AcDbEntity
  8
0
370
     0
390
0
  0
POLYLINE
  5
177
100
AcDbEntity
  8
0
370
    13
390
0
 62
    94
100
AcDb2dPolyline
 66
     1
 10
0.0
 20
0.0
 30
0.0
 70
     1
 71
    13
  0
VERTEX
  5
178
100
AcDbEntity
  8
0
370
     0
390
0
100
AcDbVertex
100
AcDb2dVertex
 10
64.991936
 20
284.014587
 30
0.0
  0
VERTEX
  5
179
100
AcDbEntity
  8
0
370
     0
390
0
100
AcDbVertex
100
AcDb2dVertex
 10
64.991936
 20
284.523926
 30
0.0
  0
VERTEX
  5
17A
100
AcDbEntity
  8
0
370
     0
390
0
100
AcDbVertex
100
AcDb2dVertex
 10
64.159805
 20
284.690369
 30
0.0
  0
VERTEX
  5
17B
100
AcDbEntity
  8
0
370
     0
390
0
100
AcDbVertex
100
AcDb2dVertex
 10
63.383144
 20
284.98288
 30
0.0
  0
VERTEX
  5
17C
100
AcDbEntity
  8
0
370
     0
390
0
100
AcDbVertex
100
AcDb2dVertex
 10
62.661964
 20
285.396423
 30
0.0
  0
VERTEX
  5
17D
100
AcDbEntity
  8
0
370
     0
390
0
100
AcDbVertex
100
AcDb2dVertex
 10
61.986168
 20
285.936035
 30
0.0
  0
VERTEX
  5
17E
100
AcDbEntity
  8
0
370
     0
390
0
100
AcDbVertex
100
AcDb2dVertex
 10
61.567581
 20
285.936035
 30
0.0
  0
VERTEX
  5
17F
100
AcDbEntity
  8
0
370
     0
390
0
100
AcDbVertex
100
AcDb2dVertex
 10
61.567581
 20
283.535461
 30
0.0
  0
VERTEX
  5
180
100
AcDbEntity
  8
0
370
     0
390
0
100
AcDbVertex
100
AcDb2dVertex
 10
62.026516
 20
283.535461
 30
0.0
  0
VERTEX
  5
181
100
AcDbEntity
  8
0
370
     0
390
0
100
AcDbVertex
100
AcDb2dVertex
 10
62.026516
 20
285.451904
 30
0.0
  0
VERTEX
  5
182
100
AcDbEntity
  8
0
370
     0
390
0
100
AcDbVertex
100
AcDb2dVertex
 10
62.707352
 20
284.897125
 30
0.0
  0
VERTEX
  5
183
100
AcDbEntity
  8
0
370
     0
390
0
100
AcDbVertex
100
AcDb2dVertex
 10
63.418449
 20
284.478546
 30
0.0
  0
VERTEX
  5
184
100
AcDbEntity
  8
0
370
     0
390
0
100
AcDbVertex
100
AcDb2dVertex
 10
64.174927
 20
284.186035
 30
0.0
  0
SEQEND
  5
185
100
AcDbEntity
  8
0
370
     0
390
0
  0
POLYLINE
  5
186
100
AcDbEntity
  8
0
370
    13
390
0
 62
    94
100
AcDb2dPolyline
 66
     1
 10
0.0
 20
0.0
 30
0.0
 70
     1
 71
     4
  0
VERTEX
  5
187
100
AcDbEntity
  8
0
370
     0
390
0
100
AcDbVertex
100
AcDb2dVertex
 10
64.991936
 20
288.103638
 30
0.0
  0
VERTEX
  5
188
100
AcDbEntity
  8
0
370
     0
390
0
100
AcDbVertex
100
AcDb2dVertex
 10
64.991936
 20
288.799591
 30
0.0
  0
VERTEX
  5
189
100
AcDbEntity
  8
0
370
     0
390
0
100
AcDbVertex
100
AcDb2dVertex
 10
64.240494
 20
288.799591
 30
0.0
  0
VERTEX
  5
18A
100
AcDbEntity
  8
0
370
     0
390
0
100
AcDbVertex
100
AcDb2dVertex
 10
64.240494
 20
288.103638
 30
0.0
  0
SEQEND
  5
18B
100
AcDbEntity
  8
0
370
     0
390
0
  0
POLYLINE
  5
18C
100
AcDbEntity
  8
0
370
    13
390
0
 62
    94
100
AcDb2dPolyline
 66
     1
 10
0.0
 20
0.0
 30
0.0
 70
     1
 71
    13
  0
VERTEX
  5
18D
100
AcDbEntity
  8
0
370
     0
390
0
100
AcDbVertex
100
AcDb2dVertex
 10
64.991936
 20
291.486633
 30
0.0
  0
VERTEX
  5
18E
100
AcDbEntity
  8
0
370
     0
390
0
100
AcDbVertex
100
AcDb2dVertex
 10
64.991936
 20
291.995972
 30
0.0
  0
VERTEX
  5
18F
100
AcDbEntity
  8
0
370
     0
390
0
100
AcDbVertex
100
AcDb2dVertex
 10
64.159805
 20
292.162415
 30
0.0
  0
VERTEX
  5
190
100
AcDbEntity
  8
0
370
     0
390
0
100
AcDbVertex
100
AcDb2dVertex
 10
63.383144
 20
292.454926
 30
0.0
  0
VERTEX
  5
191
100
AcDbEntity
  8
0
370
     0
390
0
100
AcDbVertex
100
AcDb2dVertex
 10
62.661964
 20
292.868469
 30
0.0
  0
VERTEX
  5
192
100
AcDbEntity
  8
0
370
     0
390
0
100
AcDbVertex
100
AcDb2dVertex
 10
61.986168
 20
293.408081
 30
0.0
  0
VERTEX
  5
193
100
AcDbEntity
  8
0
370
     0
390
0
100
AcDbVertex
100
AcDb2dVertex
 10
61.567581
 20
293.408081
 30
0.0
  0
VERTEX
  5
194
100
AcDbEntity
  8
0
370
     0
390
0
100
AcDbVertex
100
AcDb2dVertex
 10
61.567581
 20
291.007507
 30
0.0
  0
VERTEX
  5
195
100
AcDbEntity
  8
0
370
     0
390
0
100
AcDbVertex
100
AcDb2dVertex
 10
62.026516
 20
291.007507
 30
0.0
  0
VERTEX
  5
196
100
AcDbEntity
  8
0
370
     0
390
0
100
AcDbVertex
100
AcDb2dVertex
 10
62.026516
 20
292.92395
 30
0.0
  0
VERTEX
  5
197
100
AcDbEntity
  8
0
370
     0
390
0
100
AcDbVertex
100
AcDb2dVertex
 10
62.707352
 20
292.369171
 30
0.0
  0
VERTEX
  5
198
100
AcDbEntity
  8
0
370
     0
390
0
100
AcDbVertex
100
AcDb2dVertex
 10
63.418449
 20
291.950592
 30
0.0
  0
VERTEX
  5
199
100
AcDbEntity
  8
0
370
     0
390
0
100
AcDbVertex
100
AcDb2dVertex
 10
64.174927
 20
291.658081
 30
0.0
  0
SEQEND
  5
19A
100
AcDbEntity
  8
0
370
     0
390
0
  0
LINE
  5
19B
100
AcDbEntity
  8
0
370
    13
390
0
 62
    94
 48
0.114955
100
AcDbLine
 10
64.393738
 20
252.733597
 30
0.0
 11
68.991936
 21
252.733597
 31
0.0
210
0.0
220
0.0
230
1.0
  0
LINE
  5
19C
100
AcDbEntity
  8
0
370
    13
390
0
 62
    94
 48
0.103526
100
AcDbLine
 10
64.850891
 20
320.433594
 30
0.0
 11
68.991936
 21
320.433594
 31
0.0
210
0.0
220
0.0
230
1.0
  0
POLYLINE
  5
19D
100
AcDbEntity
  8
0
370
    13
390
0
 62
     7
100
AcDb2dPolyline
 66
     1
 10
0.0
 20
0.0
 30
0.0
 71
     3
  0
VERTEX
  5
19E
100
AcDbEntity
  8
0
370
     0
390
0
100
AcDbVertex
100
AcDb2dVertex
 10
67.509575
 20
318.50174
 30
0.0
  0
VERTEX
  5
19F
100
AcDbEntity
  8
0
370
     0
390
0
100
AcDbVertex
100
AcDb2dVertex
 10
66.991936
 20
320.433594
 30
0.0
  0
VERTEX
  5
1A0
100
AcDbEntity
  8
0
370
     0
390
0
100
AcDbVertex
100
AcDb2dVertex
 10
66.474297
 20
318.50174
 30
0.0
  0
SEQEND
  5
1A1
100
AcDbEntity
  8
0
370
     0
390
0
  0
POLYLINE
  5
1A2
100
AcDbEntity
  8
0
370
    13
390
0
 62
     7
100
AcDb2dPolyline
 66
     1
 10
0.0
 20
0.0
 30
0.0
 71
     3
  0
VERTEX
  5
1A3
100
AcDbEntity
  8
0
370
     0
390
0
100
AcDbVertex
100
AcDb2dVertex
 10
66.474297
 20
254.665436
 30
0.0
  0
VERTEX
  5
1A4
100
AcDbEntity
  8
0
370
     0
390
0
100
AcDbVertex
100
AcDb2dVertex
 10
66.991936
 20
252.733597
 30
0.0
  0
VERTEX
  5
1A5
100
AcDbEntity
  8
0
370
     0
390
0
100
AcDbVertex
100
AcDb2dVertex
 10
67.509575
 20
254.665436
 30
0.0
  0
SEQEND
  5
1A6
100
AcDbEntity
  8
0
370
     0
390
0
  0
LINE
  5
1A7
100
AcDbEntity
  8
0
370
    13
390
0
 62
    94
100
AcDbLine
 10
66.991936
 20
252.733597
 30
0.0
 11
66.991936
 21
320.433594
 31
0.0
210
0.0
220
0.0
230
1.0
  0
POLYLINE
  5
1A8
100
AcDbEntity
  8
0
370
    13
390
0
 62
    94
100
AcDb2dPolyline
 66
     1
 10
0.0
 20
0.0
 30
0.0
 70
     1
 71
    10
  0
VERTEX
  5
1A9
100
AcDbEntity
  8
0
370
     0
390
0
100
AcDbVertex
100
AcDb2dVertex
 10
11.239698
 20
307.252319
 30
0.0
  0
VERTEX
  5
1AA
100
AcDbEntity
  8
0
370
     0
390
0
100
AcDbVertex
100
AcDb2dVertex
 10
11.239698
 20
307.645691
 30
0.0
  0
VERTEX
  5
1AB
100
AcDbEntity
  8
0
370
     0
390
0
100
AcDbVertex
100
AcDb2dVertex
 10
8.218084
 20
307.645691
 30
0.0
  0
VERTEX
  5
1AC
100
AcDbEntity
  8
0
370
     0
390
0
100
AcDbVertex
100
AcDb2dVertex
 10
8.218084
 20
307.351746
 30
0.0
  0
VERTEX
  5
1AD
100
AcDbEntity
  8
0
370
     0
390
0
100
AcDbVertex
100
AcDb2dVertex
 10
8.481773
 20
307.273926
 30
0.0
  0
VERTEX
  5
1AE
100
AcDbEntity
  8
0
370
     0
390
0
100
AcDbVertex
100
AcDb2dVertex
 10
8.659006
 20
307.118317
 30
0.0
  0
VERTEX
  5
1AF
100
AcDbEntity
  8
0
370
     0
390
0
100
AcDbVertex
100
AcDb2dVertex
 10
8.762753
 20
306.880554
 30
0.0
  0
VERTEX
  5
1B0
100
AcDbEntity
  8
0
370
     0
390
0
100
AcDbVertex
100
AcDb2dVertex
 10
8.797335
 20
306.552032
 30
0.0
  0
VERTEX
  5
1B1
100
AcDbEntity
  8
0
370
     0
390
0
100
AcDbVertex
100
AcDb2dVertex
 10
9.104252
 20
306.552032
 30
0.0
  0
VERTEX
  5
1B2
100
AcDbEntity
  8
0
370
     0
390
0
100
AcDbVertex
100
AcDb2dVertex
 10
9.104252
 20
307.252319
 30
0.0
  0
SEQEND
  5
1B3
100
AcDbEntity
  8
0
370
     0
390
0
  0
POLYLINE
  5
1B4
100
AcDbEntity
  8
0
370
    13
390
0
 62
    94
100
AcDb2dPolyline
 66
     1
 10
0.0
 20
0.0
 30
0.0
 70
     1
 71
    35
  0
VERTEX
  5
1B5
100
AcDbEntity
  8
0
370
     0
390
0
100
AcDbVertex
100
AcDb2dVertex
 10
9.048056
 20
311.569916
 30
0.0
  0
VERTEX
  5
1B6
100
AcDbEntity
  8
0
370
     0
390
0
100
AcDbVertex
100
AcDb2dVertex
 10
8.697912
 20
311.487762
 30
0.0
  0
VERTEX
  5
1B7
100
AcDbEntity
  8
0
370
     0
390
0
100
AcDbVertex
100
AcDb2dVertex
 10
8.438545
 20
311.297577
 30
0.0
  0
VERTEX
  5
1B8
100
AcDbEntity
  8
0
370
     0
390
0
100
AcDbVertex
100
AcDb2dVertex
 10
8.274281
 20
311.003632
 30
0.0
  0
VERTEX
  5
1B9
100
AcDbEntity
  8
0
370
     0
390
0
100
AcDbVertex
100
AcDb2dVertex
 10
8.218084
 20
310.62323
 30
0.0
  0
VERTEX
  5
1BA
100
AcDbEntity
  8
0
370
     0
390
0
100
AcDbVertex
100
AcDb2dVertex
 10
8.248344
 20
310.368164
 30
0.0
  0
VERTEX
  5
1BB
100
AcDbEntity
  8
0
370
     0
390
0
100
AcDbVertex
100
AcDb2dVertex
 10
8.330477
 20
310.147705
 30
0.0
  0
VERTEX
  5
1BC
100
AcDbEntity
  8
0
370
     0
390
0
100
AcDbVertex
100
AcDb2dVertex
 10
8.464481
 20
309.953186
 30
0.0
  0
VERTEX
  5
1BD
100
AcDbEntity
  8
0
370
     0
390
0
100
AcDbVertex
100
AcDb2dVertex
 10
8.654684
 20
309.78894
 30
0.0
  0
VERTEX
  5
1BE
100
AcDbEntity
  8
0
370
     0
390
0
100
AcDbVertex
100
AcDb2dVertex
 10
8.892437
 20
309.659241
 30
0.0
  0
VERTEX
  5
1BF
100
AcDbEntity
  8
0
370
     0
390
0
100
AcDbVertex
100
AcDb2dVertex
 10
9.182062
 20
309.564148
 30
0.0
  0
VERTEX
  5
1C0
100
AcDbEntity
  8
0
370
     0
390
0
100
AcDbVertex
100
AcDb2dVertex
 10
9.52356
 20
309.503632
 30
0.0
  0
VERTEX
  5
1C1
100
AcDbEntity
  8
0
370
     0
390
0
100
AcDbVertex
100
AcDb2dVertex
 10
9.908287
 20
309.486328
 30
0.0
  0
VERTEX
  5
1C2
100
AcDbEntity
  8
0
370
     0
390
0
100
AcDbVertex
100
AcDb2dVertex
 10
10.52212
 20
309.555481
 30
0.0
  0
VERTEX
  5
1C3
100
AcDbEntity
  8
0
370
     0
390
0
100
AcDbVertex
100
AcDb2dVertex
 10
10.967363
 20
309.767303
 30
0.0
  0
VERTEX
  5
1C4
100
AcDbEntity
  8
0
370
     0
390
0
100
AcDbVertex
100
AcDb2dVertex
 10
11.235376
 20
310.108826
 30
0.0
  0
VERTEX
  5
1C5
100
AcDbEntity
  8
0
370
     0
390
0
100
AcDbVertex
100
AcDb2dVertex
 10
11.326153
 20
310.575684
 30
0.0
  0
VERTEX
  5
1C6
100
AcDbEntity
  8
0
370
     0
390
0
100
AcDbVertex
100
AcDb2dVertex
 10
11.248344
 20
310.994965
 30
0.0
  0
VERTEX
  5
1C7
100
AcDbEntity
  8
0
370
     0
390
0
100
AcDbVertex
100
AcDb2dVertex
 10
11.045174
 20
311.31485
 30
0.0
  0
VERTEX
  5
1C8
100
AcDbEntity
  8
0
370
     0
390
0
100
AcDbVertex
100
AcDb2dVertex
 10
10.725288
 20
311.522369
 30
0.0
  0
VERTEX
  5
1C9
100
AcDbEntity
  8
0
370
     0
390
0
100
AcDbVertex
100
AcDb2dVertex
 10
10.318949
 20
311.595856
 30
0.0
  0
VERTEX
  5
1CA
100
AcDbEntity
  8
0
370
     0
390
0
100
AcDbVertex
100
AcDb2dVertex
 10
9.908287
 20
311.522369
 30
0.0
  0
VERTEX
  5
1CB
100
AcDbEntity
  8
0
370
     0
390
0
100
AcDbVertex
100
AcDb2dVertex
 10
9.592724
 20
311.323517
 30
0.0
  0
VERTEX
  5
1CC
100
AcDbEntity
  8
0
370
     0
390
0
100
AcDbVertex
100
AcDb2dVertex
 10
9.393877
 20
311.016602
 30
0.0
  0
VERTEX
  5
1CD
100
AcDbEntity
  8
0
370
     0
390
0
100
AcDbVertex
100
AcDb2dVertex
 10
9.324713
 20
310.6362
 30
0.0
  0
VERTEX
  5
1CE
100
AcDbEntity
  8
0
370
     0
390
0
100
AcDbVertex
100
AcDb2dVertex
 10
9.411167
 20
310.225525
 30
0.0
  0
VERTEX
  5
1CF
100
AcDbEntity
  8
0
370
     0
390
0
100
AcDbVertex
100
AcDb2dVertex
 10
9.657566
 20
309.91861
 30
0.0
  0
VERTEX
  5
1D0
100
AcDbEntity
  8
0
370
     0
390
0
100
AcDbVertex
100
AcDb2dVertex
 10
9.182062
 20
309.983459
 30
0.0
  0
VERTEX
  5
1D1
100
AcDbEntity
  8
0
370
     0
390
0
100
AcDbVertex
100
AcDb2dVertex
 10
8.840563
 20
310.121765
 30
0.0
  0
VERTEX
  5
1D2
100
AcDbEntity
  8
0
370
     0
390
0
100
AcDbVertex
100
AcDb2dVertex
 10
8.637392
 20
310.333588
 30
0.0
  0
VERTEX
  5
1D3
100
AcDbEntity
  8
0
370
     0
390
0
100
AcDbVertex
100
AcDb2dVertex
 10
8.568228
 20
310.627533
 30
0.0
  0
VERTEX
  5
1D4
100
AcDbEntity
  8
0
370
     0
390
0
100
AcDbVertex
100
AcDb2dVertex
 10
8.60281
 20
310.843689
 30
0.0
  0
VERTEX
  5
1D5
100
AcDbEntity
  8
0
370
     0
390
0
100
AcDbVertex
100
AcDb2dVertex
 10
8.693588
 20
311.007935
 30
0.0
  0
VERTEX
  5
1D6
100
AcDbEntity
  8
0
370
     0
390
0
100
AcDbVertex
100
AcDb2dVertex
 10
8.844885
 20
311.116028
 30
0.0
  0
VERTEX
  5
1D7
100
AcDbEntity
  8
0
370
     0
390
0
100
AcDbVertex
100
AcDb2dVertex
 10
9.048056
 20
311.172211
 30
0.0
  0
SEQEND
  5
1D8
100
AcDbEntity
  8
0
370
     0
390
0
  0
POLYLINE
  5
1D9
100
AcDbEntity
  8
0
370
    13
390
0
 62
    94
100
AcDb2dPolyline
 66
     1
 10
0.0
 20
0.0
 30
0.0
 70
     1
 71
    16
  0
VERTEX
  5
1DA
100
AcDbEntity
  8
0
370
     0
390
0
100
AcDbVertex
100
AcDb2dVertex
 10
10.323273
 20
311.176544
 30
0.0
  0
VERTEX
  5
1DB
100
AcDbEntity
  8
0
370
     0
390
0
100
AcDbVertex
100
AcDb2dVertex
 10
10.595606
 20
311.128967
 30
0.0
  0
VERTEX
  5
1DC
100
AcDbEntity
  8
0
370
     0
390
0
100
AcDbVertex
100
AcDb2dVertex
 10
10.803099
 20
311.007935
 30
0.0
  0
VERTEX
  5
1DD
100
AcDbEntity
  8
0
370
     0
390
0
100
AcDbVertex
100
AcDb2dVertex
 10
10.941427
 20
310.813416
 30
0.0
  0
VERTEX
  5
1DE
100
AcDbEntity
  8
0
370
     0
390
0
100
AcDbVertex
100
AcDb2dVertex
 10
10.984655
 20
310.57135
 30
0.0
  0
VERTEX
  5
1DF
100
AcDbEntity
  8
0
370
     0
390
0
100
AcDbVertex
100
AcDb2dVertex
 10
10.941427
 20
310.316315
 30
0.0
  0
VERTEX
  5
1E0
100
AcDbEntity
  8
0
370
     0
390
0
100
AcDbVertex
100
AcDb2dVertex
 10
10.807423
 20
310.121765
 30
0.0
  0
VERTEX
  5
1E1
100
AcDbEntity
  8
0
370
     0
390
0
100
AcDbVertex
100
AcDb2dVertex
 10
10.59993
 20
309.996429
 30
0.0
  0
VERTEX
  5
1E2
100
AcDbEntity
  8
0
370
     0
390
0
100
AcDbVertex
100
AcDb2dVertex
 10
10.327595
 20
309.95752
 30
0.0
  0
VERTEX
  5
1E3
100
AcDbEntity
  8
0
370
     0
390
0
100
AcDbVertex
100
AcDb2dVertex
 10
10.059584
 20
310.000732
 30
0.0
  0
VERTEX
  5
1E4
100
AcDbEntity
  8
0
370
     0
390
0
100
AcDbVertex
100
AcDb2dVertex
 10
9.856413
 20
310.121765
 30
0.0
  0
VERTEX
  5
1E5
100
AcDbEntity
  8
0
370
     0
390
0
100
AcDbVertex
100
AcDb2dVertex
 10
9.72673
 20
310.320618
 30
0.0
  0
VERTEX
  5
1E6
100
AcDbEntity
  8
0
370
     0
390
0
100
AcDbVertex
100
AcDb2dVertex
 10
9.67918
 20
310.588623
 30
0.0
  0
VERTEX
  5
1E7
100
AcDbEntity
  8
0
370
     0
390
0
100
AcDbVertex
100
AcDb2dVertex
 10
9.72673
 20
310.822083
 30
0.0
  0
VERTEX
  5
1E8
100
AcDbEntity
  8
0
370
     0
390
0
100
AcDbVertex
100
AcDb2dVertex
 10
9.852091
 20
311.007935
 30
0.0
  0
VERTEX
  5
1E9
100
AcDbEntity
  8
0
370
     0
390
0
100
AcDbVertex
100
AcDb2dVertex
 10
10.05526
 20
311.128967
 30
0.0
  0
SEQEND
  5
1EA
100
AcDbEntity
  8
0
370
     0
390
0
  0
POLYLINE
  5
1EB
100
AcDbEntity
  8
0
370
    13
390
0
 62
    94
100
AcDb2dPolyline
 66
     1
 10
0.0
 20
0.0
 30
0.0
 70
     1
 71
     4
  0
VERTEX
  5
1EC
100
AcDbEntity
  8
0
370
     0
390
0
100
AcDbVertex
100
AcDb2dVertex
 10
11.239698
 20
313.436462
 30
0.0
  0
VERTEX
  5
1ED
100
AcDbEntity
  8
0
370
     0
390
0
100
AcDbVertex
100
AcDb2dVertex
 10
11.239698
 20
314.03302
 30
0.0
  0
VERTEX
  5
1EE
100
AcDbEntity
  8
0
370
     0
390
0
100
AcDbVertex
100
AcDb2dVertex
 10
10.595606
 20
314.03302
 30
0.0
  0
VERTEX
  5
1EF
100
AcDbEntity
  8
0
370
     0
390
0
100
AcDbVertex
100
AcDb2dVertex
 10
10.595606
 20
313.436462
 30
0.0
  0
SEQEND
  5
1F0
100
AcDbEntity
  8
0
370
     0
390
0
  0
POLYLINE
  5
1F1
100
AcDbEntity
  8
0
370
    13
390
0
 62
    94
100
AcDb2dPolyline
 66
     1
 10
0.0
 20
0.0
 30
0.0
 70
     1
 71
    35
  0
VERTEX
  5
1F2
100
AcDbEntity
  8
0
370
     0
390
0
100
AcDbVertex
100
AcDb2dVertex
 10
9.048056
 20
317.974518
 30
0.0
  0
VERTEX
  5
1F3
100
AcDbEntity
  8
0
370
     0
390
0
100
AcDbVertex
100
AcDb2dVertex
 10
8.697912
 20
317.892395
 30
0.0
  0
VERTEX
  5
1F4
100
AcDbEntity
  8
0
370
     0
390
0
100
AcDbVertex
100
AcDb2dVertex
 10
8.438545
 20
317.702179
 30
0.0
  0
VERTEX
  5
1F5
100
AcDbEntity
  8
0
370
     0
390
0
100
AcDbVertex
100
AcDb2dVertex
 10
8.274281
 20
317.408234
 30
0.0
  0
VERTEX
  5
1F6
100
AcDbEntity
  8
0
370
     0
390
0
100
AcDbVertex
100
AcDb2dVertex
 10
8.218084
 20
317.027832
 30
0.0
  0
VERTEX
  5
1F7
100
AcDbEntity
  8
0
370
     0
390
0
100
AcDbVertex
100
AcDb2dVertex
 10
8.248344
 20
316.772797
 30
0.0
  0
VERTEX
  5
1F8
100
AcDbEntity
  8
0
370
     0
390
0
100
AcDbVertex
100
AcDb2dVertex
 10
8.330477
 20
316.552338
 30
0.0
  0
VERTEX
  5
1F9
100
AcDbEntity
  8
0
370
     0
390
0
100
AcDbVertex
100
AcDb2dVertex
 10
8.464481
 20
316.357788
 30
0.0
  0
VERTEX
  5
1FA
100
AcDbEntity
  8
0
370
     0
390
0
100
AcDbVertex
100
AcDb2dVertex
 10
8.654684
 20
316.193542
 30
0.0
  0
VERTEX
  5
1FB
100
AcDbEntity
  8
0
370
     0
390
0
100
AcDbVertex
100
AcDb2dVertex
 10
8.892437
 20
316.063843
 30
0.0
  0
VERTEX
  5
1FC
100
AcDbEntity
  8
0
370
     0
390
0
100
AcDbVertex
100
AcDb2dVertex
 10
9.182062
 20
315.96875
 30
0.0
  0
VERTEX
  5
1FD
100
AcDbEntity
  8
0
370
     0
390
0
100
AcDbVertex
100
AcDb2dVertex
 10
9.52356
 20
315.908234
 30
0.0
  0
VERTEX
  5
1FE
100
AcDbEntity
  8
0
370
     0
390
0
100
AcDbVertex
100
AcDb2dVertex
 10
9.908287
 20
315.89093
 30
0.0
  0
VERTEX
  5
1FF
100
AcDbEntity
  8
0
370
     0
390
0
100
AcDbVertex
100
AcDb2dVertex
 10
10.52212
 20
315.960114
 30
0.0
  0
VERTEX
  5
200
100
AcDbEntity
  8
0
370
     0
390
0
100
AcDbVertex
100
AcDb2dVertex
 10
10.967363
 20
316.171936
 30
0.0
  0
VERTEX
  5
201
100
AcDbEntity
  8
0
370
     0
390
0
100
AcDbVertex
100
AcDb2dVertex
 10
11.235376
 20
316.513428
 30
0.0
  0
VERTEX
  5
202
100
AcDbEntity
  8
0
370
     0
390
0
100
AcDbVertex
100
AcDb2dVertex
 10
11.326153
 20
316.980286
 30
0.0
  0
VERTEX
  5
203
100
AcDbEntity
  8
0
370
     0
390
0
100
AcDbVertex
100
AcDb2dVertex
 10
11.248344
 20
317.399597
 30
0.0
  0
VERTEX
  5
204
100
AcDbEntity
  8
0
370
     0
390
0
100
AcDbVertex
100
AcDb2dVertex
 10
11.045174
 20
317.719482
 30
0.0
  0
VERTEX
  5
205
100
AcDbEntity
  8
0
370
     0
390
0
100
AcDbVertex
100
AcDb2dVertex
 10
10.725288
 20
317.926971
 30
0.0
  0
VERTEX
  5
206
100
AcDbEntity
  8
0
370
     0
390
0
100
AcDbVertex
100
AcDb2dVertex
 10
10.318949
 20
318.000458
 30
0.0
  0
VERTEX
  5
207
100
AcDbEntity
  8
0
370
     0
390
0
100
AcDbVertex
100
AcDb2dVertex
 10
9.908287
 20
317.926971
 30
0.0
  0
VERTEX
  5
208
100
AcDbEntity
  8
0
370
     0
390
0
100
AcDbVertex
100
AcDb2dVertex
 10
9.592724
 20
317.728119
 30
0.0
  0
VERTEX
  5
209
100
AcDbEntity
  8
0
370
     0
390
0
100
AcDbVertex
100
AcDb2dVertex
 10
9.393877
 20
317.421204
 30
0.0
  0
VERTEX
  5
20A
100
AcDbEntity
  8
0
370
     0
390
0
100
AcDbVertex
100
AcDb2dVertex
 10
9.324713
 20
317.040802
 30
0.0
  0
VERTEX
  5
20B
100
AcDbEntity
  8
0
370
     0
390
0
100
AcDbVertex
100
AcDb2dVertex
 10
9.411167
 20
316.630127
 30
0.0
  0
VERTEX
  5
20C
100
AcDbEntity
  8
0
370
     0
390
0
100
AcDbVertex
100
AcDb2dVertex
 10
9.657566
 20
316.323212
 30
0.0
  0
VERTEX
  5
20D
100
AcDbEntity
  8
0
370
     0
390
0
100
AcDbVertex
100
AcDb2dVertex
 10
9.182062
 20
316.388062
 30
0.0
  0
VERTEX
  5
20E
100
AcDbEntity
  8
0
370
     0
390
0
100
AcDbVertex
100
AcDb2dVertex
 10
8.840563
 20
316.526398
 30
0.0
  0
VERTEX
  5
20F
100
AcDbEntity
  8
0
370
     0
390
0
100
AcDbVertex
100
AcDb2dVertex
 10
8.637392
 20
316.73822
 30
0.0
  0
VERTEX
  5
210
100
AcDbEntity
  8
0
370
     0
390
0
100
AcDbVertex
100
AcDb2dVertex
 10
8.568228
 20
317.032166
 30
0.0
  0
VERTEX
  5
211
100
AcDbEntity
  8
0
370
     0
390
0
100
AcDbVertex
100
AcDb2dVertex
 10
8.60281
 20
317.248291
 30
0.0
  0
VERTEX
  5
212
100
AcDbEntity
  8
0
370
     0
390
0
100
AcDbVertex
100
AcDb2dVertex
 10
8.693588
 20
317.412567
 30
0.0
  0
VERTEX
  5
213
100
AcDbEntity
  8
0
370
     0
390
0
100
AcDbVertex
100
AcDb2dVertex
 10
8.844885
 20
317.52063
 30
0.0
  0
VERTEX
  5
214
100
AcDbEntity
  8
0
370
     0
390
0
100
AcDbVertex
100
AcDb2dVertex
 10
9.048056
 20
317.576813
 30
0.0
  0
SEQEND
  5
215
100
AcDbEntity
  8
0
370
     0
390
0
  0
POLYLINE
  5
216
100
AcDbEntity
  8
0
370
    13
390
0
 62
    94
100
AcDb2dPolyline
 66
     1
 10
0.0
 20
0.0
 30
0.0
 70
     1
 71
    16
  0
VERTEX
  5
217
100
AcDbEntity
  8
0
370
     0
390
0
100
AcDbVertex
100
AcDb2dVertex
 10
10.323273
 20
317.581146
 30
0.0
  0
VERTEX
  5
218
100
AcDbEntity
  8
0
370
     0
390
0
100
AcDbVertex
100
AcDb2dVertex
 10
10.595606
 20
317.5336
 30
0.0
  0
VERTEX
  5
219
100
AcDbEntity
  8
0
370
     0
390
0
100
AcDbVertex
100
AcDb2dVertex
 10
10.803099
 20
317.412567
 30
0.0
  0
VERTEX
  5
21A
100
AcDbEntity
  8
0
370
     0
390
0
100
AcDbVertex
100
AcDb2dVertex
 10
10.941427
 20
317.218018
 30
0.0
  0
VERTEX
  5
21B
100
AcDbEntity
  8
0
370
     0
390
0
100
AcDbVertex
100
AcDb2dVertex
 10
10.984655
 20
316.975952
 30
0.0
  0
VERTEX
  5
21C
100
AcDbEntity
  8
0
370
     0
390
0
100
AcDbVertex
100
AcDb2dVertex
 10
10.941427
 20
316.720917
 30
0.0
  0
VERTEX
  5
21D
100
AcDbEntity
  8
0
370
     0
390
0
100
AcDbVertex
100
AcDb2dVertex
 10
10.807423
 20
316.526398
 30
0.0
  0
VERTEX
  5
21E
100
AcDbEntity
  8
0
370
     0
390
0
100
AcDbVertex
100
AcDb2dVertex
 10
10.59993
 20
316.401031
 30
0.0
  0
VERTEX
  5
21F
100
AcDbEntity
  8
0
370
     0
390
0
100
AcDbVertex
100
AcDb2dVertex
 10
10.327595
 20
316.362122
 30
0.0
  0
VERTEX
  5
220
100
AcDbEntity
  8
0
370
     0
390
0
100
AcDbVertex
100
AcDb2dVertex
 10
10.059584
 20
316.405365
 30
0.0
  0
VERTEX
  5
221
100
AcDbEntity
  8
0
370
     0
390
0
100
AcDbVertex
100
AcDb2dVertex
 10
9.856413
 20
316.526398
 30
0.0
  0
VERTEX
  5
222
100
AcDbEntity
  8
0
370
     0
390
0
100
AcDbVertex
100
AcDb2dVertex
 10
9.72673
 20
316.72522
 30
0.0
  0
VERTEX
  5
223
100
AcDbEntity
  8
0
370
     0
390
0
100
AcDbVertex
100
AcDb2dVertex
 10
9.67918
 20
316.993256
 30
0.0
  0
VERTEX
  5
224
100
AcDbEntity
  8
0
370
     0
390
0
100
AcDbVertex
100
AcDb2dVertex
 10
9.72673
 20
317.226685
 30
0.0
  0
VERTEX
  5
225
100
AcDbEntity
  8
0
370
     0
390
0
100
AcDbVertex
100
AcDb2dVertex
 10
9.852091
 20
317.412567
 30
0.0
  0
VERTEX
  5
226
100
AcDbEntity
  8
0
370
     0
390
0
100
AcDbVertex
100
AcDb2dVertex
 10
10.05526
 20
317.5336
 30
0.0
  0
SEQEND
  5
227
100
AcDbEntity
  8
0
370
     0
390
0
  0
LINE
  5
228
100
AcDbEntity
  8
0
370
    13
390
0
 62
    94
 48
0.10796
100
AcDbLine
 10
15.558096
 20
303.833588
 30
0.0
 11
11.239698
 21
303.833588
 31
0.0
210
0.0
220
0.0
230
1.0
  0
LINE
  5
229
100
AcDbEntity
  8
0
370
    13
390
0
 62
    94
 48
0.11296
100
AcDbLine
 10
15.758097
 20
320.433594
 30
0.0
 11
11.239698
 21
320.433594
 31
0.0
210
0.0
220
0.0
230
1.0
  0
POLYLINE
  5
22A
100
AcDbEntity
  8
0
370
    13
390
0
 62
     7
100
AcDb2dPolyline
 66
     1
 10
0.0
 20
0.0
 30
0.0
 71
     3
  0
VERTEX
  5
22B
100
AcDbEntity
  8
0
370
     0
390
0
100
AcDbVertex
100
AcDb2dVertex
 10
12.722061
 20
322.365448
 30
0.0
  0
VERTEX
  5
22C
100
AcDbEntity
  8
0
370
     0
390
0
100
AcDbVertex
100
AcDb2dVertex
 10
13.239698
 20
320.433594
 30
0.0
  0
VERTEX
  5
22D
100
AcDbEntity
  8
0
370
     0
390
0
100
AcDbVertex
100
AcDb2dVertex
 10
13.757338
 20
322.365448
 30
0.0
  0
SEQEND
  5
22E
100
AcDbEntity
  8
0
370
     0
390
0
  0
POLYLINE
  5
22F
100
AcDbEntity
  8
0
370
    13
390
0
 62
     7
100
AcDb2dPolyline
 66
     1
 10
0.0
 20
0.0
 30
0.0
 71
     3
  0
VERTEX
  5
230
100
AcDbEntity
  8
0
370
     0
390
0
100
AcDbVertex
100
AcDb2dVertex
 10
13.757338
 20
301.901733
 30
0.0
  0
VERTEX
  5
231
100
AcDbEntity
  8
0
370
     0
390
0
100
AcDbVertex
100
AcDb2dVertex
 10
13.239698
 20
303.833588
 30
0.0
  0
VERTEX
  5
232
100
AcDbEntity
  8
0
370
     0
390
0
100
AcDbVertex
100
AcDb2dVertex
 10
12.722061
 20
301.901733
 30
0.0
  0
SEQEND
  5
233
100
AcDbEntity
  8
0
370
     0
390
0
  0
LINE
  5
234
100
AcDbEntity
  8
0
370
    13
390
0
 62
    94
100
AcDbLine
 10
13.239698
 20
298.833588
 30
0.0
 11
13.239698
 21
325.433594
 31
0.0
210
0.0
220
0.0
230
1.0
  0
ARC
  5
235
100
AcDbEntity
  8
0
370
    35
390
0
 62
     7
100
AcDbCircle
 10
24.496988
 20
303.983582
 30
0.0
 40
0.25
210
0.0
220
0.0
230
1.0
100
AcDbArc
 50
269.999997
 51
323.128197
  0
ARC
  5
236
100
AcDbEntity
  8
0
370
    35
390
0
 62
     7
100
AcDbCircle
 10
26.696987
 20
303.983582
 30
0.0
 40
0.25
210
0.0
220
0.0
230
1.0
100
AcDbArc
 50
216.871801
 51
269.999997
  0
ARC
  5
237
100
AcDbEntity
  8
0
370
    35
390
0
 62
     7
100
AcDbCircle
 10
51.796989
 20
303.983582
 30
0.0
 40
0.25
210
0.0
220
0.0
230
1.0
100
AcDbArc
 50
216.871801
 51
269.999997
  0
ARC
  5
238
100
AcDbEntity
  8
0
370
    35
390
0
 62
     7
100
AcDbCircle
 10
49.596989
 20
303.983582
 30
0.0
 40
0.25
210
0.0
220
0.0
230
1.0
100
AcDbArc
 50
269.999997
 51
323.128197
  0
LINE
  5
239
100
AcDbEntity
  8
0
370
    35
390
0
 62
     7
 48
0.002498
100
AcDbLine
 10
36.146988
 20
303.733551
 30
0.0
 11
36.146988
 21
303.833466
 31
0.0
210
0.0
220
0.0
230
1.0
  0
ARC
  5
23A
100
AcDbEntity
  8
0
370
    35
390
0
 62
     7
100
AcDbCircle
 10
55.892586
 20
303.483582
 30
0.0
 40
0.25
210
0.0
220
0.0
230
1.0
100
AcDbArc
 50
359.0
 51
90.000003
  0
LINE
  5
23B
100
AcDbEntity
  8
0
370
    35
390
0
 62
     7
 48
0.44364
100
AcDbLine
 10
38.146988
 20
303.733582
 30
0.0
 11
55.892586
 21
303.733582
 31
0.0
210
0.0
220
0.0
230
1.0
  0
LINE
  5
23C
100
AcDbEntity
  8
0
370
    35
390
0
 62
     7
 48
0.44364
100
AcDbLine
 10
38.146988
 20
303.733582
 30
0.0
 11
20.40139
 21
303.733582
 31
0.0
210
0.0
220
0.0
230
1.0
  0
ARC
  5
23D
100
AcDbEntity
  8
0
370
    35
390
0
 62
     7
100
AcDbCircle
 10
20.40139
 20
303.483582
 30
0.0
 40
0.25
210
0.0
220
0.0
230
1.0
100
AcDbArc
 50
90.000003
 51
181.000003
  0
LINE
  5
23E
100
AcDbEntity
  8
0
370
    35
390
0
 62
     7
100
AcDbLine
 10
20.151428
 20
303.479218
 30
0.0
 11
21.028622
 21
253.224869
 31
0.0
210
0.0
220
0.0
230
1.0
  0
ARC
  5
23F
100
AcDbEntity
  8
0
370
    35
390
0
 62
     7
100
AcDbCircle
 10
21.528545
 20
253.233597
 30
0.0
 40
0.5
210
0.0
220
0.0
230
1.0
100
AcDbArc
 50
181.000003
 51
269.999997
  0
LINE
  5
240
100
AcDbEntity
  8
0
370
    35
390
0
 62
     7
 48
0.415461
100
AcDbLine
 10
21.528545
 20
252.733597
 30
0.0
 11
38.146988
 21
252.733597
 31
0.0
210
0.0
220
0.0
230
1.0
  0
LINE
  5
241
100
AcDbEntity
  8
0
370
    35
390
0
 62
     7
 48
0.415461
100
AcDbLine
 10
54.76543
 20
252.733597
 30
0.0
 11
38.146988
 21
252.733597
 31
0.0
210
0.0
220
0.0
230
1.0
  0
ARC
  5
242
100
AcDbEntity
  8
0
370
    35
390
0
 62
     7
100
AcDbCircle
 10
54.76543
 20
253.233597
 30
0.0
 40
0.5
210
0.0
220
0.0
230
1.0
100
AcDbArc
 50
269.999997
 51
359.0
  0
LINE
  5
243
100
AcDbEntity
  8
0
370
    35
390
0
 62
     7
100
AcDbLine
 10
56.142548
 20
303.479218
 30
0.0
 11
55.265354
 21
253.224869
 31
0.0
210
0.0
220
0.0
230
1.0
  0
LINE
  5
244
100
AcDbEntity
  8
0
370
    13
390
0
 62
     7
 48
0.005
100
AcDbLine
 10
21.528545
 20
252.933594
 30
0.0
 11
21.528545
 21
252.733597
 31
0.0
210
0.0
220
0.0
230
1.0
  0
LINE
  5
245
100
AcDbEntity
  8
0
370
    13
390
0
 62
     7
 48
0.005
100
AcDbLine
 10
54.76543
 20
252.933594
 30
0.0
 11
54.76543
 21
252.733597
 31
0.0
210
0.0
220
0.0
230
1.0
  0
LINE
  5
246
100
AcDbEntity
  8
0
370
    13
390
0
 62
     7
100
AcDbLine
 10
54.76543
 20
252.933594
 30
0.0
 11
21.528545
 21
252.933594
 31
0.0
210
0.0
220
0.0
230
1.0
  0
LINE
  5
247
100
AcDbEntity
  8
0
370
    13
390
0
 62
     7
 48
0.005
100
AcDbLine
 10
55.892586
 20
303.5336
 30
0.0
 11
55.892586
 21
303.733582
 31
0.0
210
0.0
220
0.0
230
1.0
  0
LINE
  5
248
100
AcDbEntity
  8
0
370
    13
390
0
 62
     7
 48
0.005
100
AcDbLine
 10
20.40139
 20
303.5336
 30
0.0
 11
20.40139
 21
303.733582
 31
0.0
210
0.0
220
0.0
230
1.0
  0
LINE
  5
249
100
AcDbEntity
  8
0
370
    13
390
0
 62
     7
100
AcDbLine
 10
55.892586
 20
303.5336
 30
0.0
 11
20.40139
 21
303.5336
 31
0.0
210
0.0
220
0.0
230
1.0
  0
LINE
  5
24A
100
AcDbEntity
  8
0
370
    13
390
0
 62
     7
 48
0.005
100
AcDbLine
 10
55.942581
 20
303.482727
 30
0.0
 11
56.142548
 21
303.479218
 31
0.0
210
0.0
220
0.0
230
1.0
  0
ARC
  5
24B
100
AcDbEntity
  8
0
370
    13
390
0
 62
     7
100
AcDbCircle
 10
55.892586
 20
303.483582
 30
0.0
 40
0.05
210
0.0
220
0.0
230
1.0
100
AcDbArc
 50
359.0
 51
90.000003
  0
LINE
  5
24C
100
AcDbEntity
  8
0
370
    13
390
0
 62
     7
 48
0.005
100
AcDbLine
 10
55.065384
 20
253.228363
 30
0.0
 11
55.265354
 21
253.224869
 31
0.0
210
0.0
220
0.0
230
1.0
  0
LINE
  5
24D
100
AcDbEntity
  8
0
370
    13
390
0
 62
     7
100
AcDbLine
 10
55.942581
 20
303.482727
 30
0.0
 11
55.065384
 21
253.228363
 31
0.0
210
0.0
220
0.0
230
1.0
  0
ARC
  5
24E
100
AcDbEntity
  8
0
370
    13
390
0
 62
     7
100
AcDbCircle
 10
54.76543
 20
253.233597
 30
0.0
 40
0.3
210
0.0
220
0.0
230
1.0
100
AcDbArc
 50
269.999997
 51
359.0
  0
LINE
  5
24F
100
AcDbEntity
  8
0
370
    13
390
0
 62
     7
 48
0.005
100
AcDbLine
 10
21.22859
 20
253.228363
 30
0.0
 11
21.028622
 21
253.224869
 31
0.0
210
0.0
220
0.0
230
1.0
  0
ARC
  5
250
100
AcDbEntity
  8
0
370
    13
390
0
 62
     7
100
AcDbCircle
 10
21.528545
 20
253.233597
 30
0.0
 40
0.3
210
0.0
220
0.0
230
1.0
100
AcDbArc
 50
181.000003
 51
269.999997
  0
LINE
  5
251
100
AcDbEntity
  8
0
370
    13
390
0
 62
     7
 48
0.005
100
AcDbLine
 10
20.351397
 20
303.482727
 30
0.0
 11
20.151428
 21
303.479218
 31
0.0
210
0.0
220
0.0
230
1.0
  0
LINE
  5
252
100
AcDbEntity
  8
0
370
    13
390
0
 62
     7
100
AcDbLine
 10
20.351397
 20
303.482727
 30
0.0
 11
21.22859
 21
253.228363
 31
0.0
210
0.0
220
0.0
230
1.0
  0
ARC
  5
253
100
AcDbEntity
  8
0
370
    13
390
0
 62
     7
100
AcDbCircle
 10
20.40139
 20
303.483582
 30
0.0
 40
0.05
210
0.0
220
0.0
230
1.0
100
AcDbArc
 50
90.000003
 51
181.000003
  0
LINE
  5
254
100
AcDbEntity
  8
0
370
    13
390
0
 62
     7
 48
0.0025
100
AcDbLine
 10
48.046989
 20
303.833588
 30
0.0
 11
48.046989
 21
303.733582
 31
0.0
210
0.0
220
0.0
230
1.0
  0
ARC
  5
255
100
AcDbEntity
  8
0
370
    35
390
0
 62
     7
100
AcDbCircle
 10
48.046989
 20
304.233582
 30
0.0
 40
0.5
210
0.0
220
0.0
230
1.0
100
AcDbArc
 50
269.999997
 51
306.855961
  0
LINE
  5
256
100
AcDbEntity
  8
0
370
    35
390
0
 62
     7
 48
0.0025
100
AcDbLine
 10
36.646988
 20
303.733582
 30
0.0
 11
36.646988
 21
303.833588
 31
0.0
210
0.0
220
0.0
230
1.0
  0
LINE
  5
257
100
AcDbEntity
  8
0
370
    35
390
0
 62
     7
 48
0.0025
100
AcDbLine
 10
39.646988
 20
303.733582
 30
0.0
 11
39.646988
 21
303.833588
 31
0.0
210
0.0
220
0.0
230
1.0
  0
LINE
  5
258
100
AcDbEntity
  8
0
370
    35
390
0
 62
     7
 48
0.000301
100
AcDbLine
 10
50.122589
 20
320.434265
 30
0.0
 11
50.122589
 21
320.446289
 31
0.0
210
0.0
220
0.0
230
1.0
  0
LINE
  5
259
100
AcDbEntity
  8
0
370
    35
390
0
 62
     7
 48
0.006121
100
AcDbLine
 10
46.367424
 20
320.565247
 30
0.0
 11
46.122589
 21
320.565247
 31
0.0
210
0.0
220
0.0
230
1.0
  0
LINE
  5
25A
100
AcDbEntity
  8
0
370
    35
390
0
 62
     7
 48
0.093879
100
AcDbLine
 10
50.122589
 20
320.565247
 30
0.0
 11
46.367424
 21
320.565247
 31
0.0
210
0.0
220
0.0
230
1.0
  0
LINE
  5
25B
100
AcDbEntity
  8
0
370
    35
390
0
 62
     7
 48
0.003291
100
AcDbLine
 10
50.122589
 20
320.433594
 30
0.0
 11
50.122589
 21
320.565247
 31
0.0
210
0.0
220
0.0
230
1.0
  0
LINE
  5
25C
100
AcDbEntity
  8
0
370
    35
390
0
 62
     7
 48
0.003291
100
AcDbLine
 10
46.122589
 20
320.433594
 30
0.0
 11
46.122589
 21
320.565247
 31
0.0
210
0.0
220
0.0
230
1.0
  0
LINE
  5
25D
100
AcDbEntity
  8
0
370
    13
390
0
 62
     7
 48
0.003291
100
AcDbLine
 10
46.501591
 20
320.565247
 30
0.0
 11
46.501591
 21
320.433594
 31
0.0
210
0.0
220
0.0
230
1.0
  0
LINE
  5
25E
100
AcDbEntity
  8
0
370
    13
390
0
 62
     7
 48
0.003291
100
AcDbLine
 10
49.743591
 20
320.565247
 30
0.0
 11
49.743591
 21
320.433594
 31
0.0
210
0.0
220
0.0
230
1.0
  0
LINE
  5
25F
100
AcDbEntity
  8
0
370
    35
390
0
 62
     7
 48
0.007071
100
AcDbLine
 10
20.82259
 20
320.233582
 30
0.0
 11
21.022591
 21
320.433594
 31
0.0
210
0.0
220
0.0
230
1.0
  0
LINE
  5
260
100
AcDbEntity
  8
0
370
    35
390
0
 62
     7
 48
0.0075
100
AcDbLine
 10
20.82259
 20
320.233582
 30
0.0
 11
20.82259
 21
319.933594
 31
0.0
210
0.0
220
0.0
230
1.0
  0
LINE
  5
261
100
AcDbEntity
  8
0
370
    35
390
0
 62
     7
 48
0.0075
100
AcDbLine
 10
55.422592
 20
320.233582
 30
0.0
 11
55.422592
 21
319.933594
 31
0.0
210
0.0
220
0.0
230
1.0
  0
LINE
  5
262
100
AcDbEntity
  8
0
370
    35
390
0
 62
     7
 48
0.007071
100
AcDbLine
 10
55.422592
 20
320.233582
 30
0.0
 11
55.222588
 21
320.433594
 31
0.0
210
0.0
220
0.0
230
1.0
  0
LINE
  5
263
100
AcDbEntity
  8
0
370
    35
390
0
 62
     7
100
AcDbLine
 10
21.022591
 20
320.433594
 30
0.0
 11
55.222588
 21
320.433594
 31
0.0
210
0.0
220
0.0
230
1.0
  0
LINE
  5
264
100
AcDbEntity
  8
0
370
    35
390
0
 62
     7
 48
0.0125
100
AcDbLine
 10
20.82259
 20
303.833588
 30
0.0
 11
20.82259
 21
304.333588
 31
0.0
210
0.0
220
0.0
230
1.0
  0
LINE
  5
265
100
AcDbEntity
  8
0
370
    35
390
0
 62
     7
100
AcDbLine
 10
55.422592
 20
303.833588
 30
0.0
 11
20.82259
 21
303.833588
 31
0.0
210
0.0
220
0.0
230
1.0
  0
LINE
  5
266
100
AcDbEntity
  8
0
370
    35
390
0
 62
     7
 48
0.0125
100
AcDbLine
 10
55.422592
 20
303.833588
 30
0.0
 11
55.422592
 21
304.333588
 31
0.0
210
0.0
220
0.0
230
1.0
  0
LINE
  5
267
100
AcDbEntity
  8
0
370
    35
390
0
 62
     7
 48
0.007071
100
AcDbLine
 10
20.522591
 20
319.933594
 30
0.0
 11
20.32259
 21
319.733582
 31
0.0
210
0.0
220
0.0
230
1.0
  0
LINE
  5
268
100
AcDbEntity
  8
0
370
    35
390
0
 62
     7
100
AcDbLine
 10
20.522591
 20
319.933594
 30
0.0
 11
55.722588
 21
319.933594
 31
0.0
210
0.0
220
0.0
230
1.0
  0
LINE
  5
269
100
AcDbEntity
  8
0
370
    35
390
0
 62
     7
 48
0.007071
100
AcDbLine
 10
55.722588
 20
319.933594
 30
0.0
 11
55.922592
 21
319.733582
 31
0.0
210
0.0
220
0.0
230
1.0
  0
LINE
  5
26A
100
AcDbEntity
  8
0
370
    35
390
0
 62
     7
100
AcDbLine
 10
55.922592
 20
304.333588
 30
0.0
 11
20.32259
 21
304.333588
 31
0.0
210
0.0
220
0.0
230
1.0
  0
LINE
  5
26B
100
AcDbEntity
  8
0
370
    35
390
0
 62
     7
 48
0.385
100
AcDbLine
 10
20.32259
 20
319.733582
 30
0.0
 11
20.32259
 21
304.333588
 31
0.0
210
0.0
220
0.0
230
1.0
  0
LINE
  5
26C
100
AcDbEntity
  8
0
370
    35
390
0
 62
     7
 48
0.385
100
AcDbLine
 10
55.922592
 20
319.733582
 30
0.0
 11
55.922592
 21
304.333588
 31
0.0
210
0.0
220
0.0
230
1.0
  0
LINE
  5
26D
100
AcDbEntity
  8
0
370
    35
390
0
 62
     7
 48
0.0125
100
AcDbLine
 10
55.422592
 20
303.833588
 30
0.0
 11
55.422592
 21
304.333588
 31
0.0
210
0.0
220
0.0
230
1.0
  0
LINE
  5
26E
100
AcDbEntity
  8
0
370
    35
390
0
 62
     7
 48
0.385
100
AcDbLine
 10
55.922592
 20
304.333588
 30
0.0
 11
55.922592
 21
319.733582
 31
0.0
210
0.0
220
0.0
230
1.0
  0
LINE
  5
26F
100
AcDbEntity
  8
0
370
    35
390
0
 62
     7
 48
0.06625
100
AcDbLine
 10
52.57259
 20
320.433594
 30
0.0
 11
55.222588
 21
320.433594
 31
0.0
210
0.0
220
0.0
230
1.0
  0
LINE
  5
270
100
AcDbEntity
  8
0
370
    35
390
0
 62
     7
 48
0.06625
100
AcDbLine
 10
21.022591
 20
320.433594
 30
0.0
 11
23.672588
 21
320.433594
 31
0.0
210
0.0
220
0.0
230
1.0
  0
POLYLINE
  5
271
100
AcDbEntity
  8
0
370
    13
390
0
 62
    94
100
AcDb2dPolyline
 66
     1
 10
0.0
 20
0.0
 30
0.0
 70
     1
 71
    40
  0
VERTEX
  5
272
100
AcDbEntity
  8
0
370
     0
390
0
100
AcDbVertex
100
AcDb2dVertex
 10
334.912354
 20
139.797058
 30
0.0
  0
VERTEX
  5
273
100
AcDbEntity
  8
0
370
     0
390
0
100
AcDbVertex
100
AcDb2dVertex
 10
337.317963
 20
139.797058
 30
0.0
  0
VERTEX
  5
274
100
AcDbEntity
  8
0
370
     0
390
0
100
AcDbVertex
100
AcDb2dVertex
 10
337.317963
 20
140.230774
 30
0.0
  0
VERTEX
  5
275
100
AcDbEntity
  8
0
370
     0
390
0
100
AcDbVertex
100
AcDb2dVertex
 10
335.416656
 20
140.230774
 30
0.0
  0
VERTEX
  5
276
100
AcDbEntity
  8
0
370
     0
390
0
100
AcDbVertex
100
AcDb2dVertex
 10
335.522583
 20
140.467804
 30
0.0
  0
VERTEX
  5
277
100
AcDbEntity
  8
0
370
     0
390
0
100
AcDbVertex
100
AcDb2dVertex
 10
335.704132
 20
140.66449
 30
0.0
  0
VERTEX
  5
278
100
AcDbEntity
  8
0
370
     0
390
0
100
AcDbVertex
100
AcDb2dVertex
 10
336.263916
 20
141.022568
 30
0.0
  0
VERTEX
  5
279
100
AcDbEntity
  8
0
370
     0
390
0
100
AcDbVertex
100
AcDb2dVertex
 10
336.561462
 20
141.173859
 30
0.0
  0
VERTEX
  5
27A
100
AcDbEntity
  8
0
370
     0
390
0
100
AcDbVertex
100
AcDb2dVertex
 10
336.894318
 20
141.390717
 30
0.0
  0
VERTEX
  5
27B
100
AcDbEntity
  8
0
370
     0
390
0
100
AcDbVertex
100
AcDb2dVertex
 10
337.131348
 20
141.642883
 30
0.0
  0
VERTEX
  5
27C
100
AcDbEntity
  8
0
370
     0
390
0
100
AcDbVertex
100
AcDb2dVertex
 10
337.267517
 20
141.94043
 30
0.0
  0
VERTEX
  5
27D
100
AcDbEntity
  8
0
370
     0
390
0
100
AcDbVertex
100
AcDb2dVertex
 10
337.317963
 20
142.27832
 30
0.0
  0
VERTEX
  5
27E
100
AcDbEntity
  8
0
370
     0
390
0
100
AcDbVertex
100
AcDb2dVertex
 10
337.232239
 20
142.701965
 30
0.0
  0
VERTEX
  5
27F
100
AcDbEntity
  8
0
370
     0
390
0
100
AcDbVertex
100
AcDb2dVertex
 10
336.995209
 20
143.034805
 30
0.0
  0
VERTEX
  5
280
100
AcDbEntity
  8
0
370
     0
390
0
100
AcDbVertex
100
AcDb2dVertex
 10
336.63208
 20
143.246628
 30
0.0
  0
VERTEX
  5
281
100
AcDbEntity
  8
0
370
     0
390
0
100
AcDbVertex
100
AcDb2dVertex
 10
336.163055
 20
143.322266
 30
0.0
  0
VERTEX
  5
282
100
AcDbEntity
  8
0
370
     0
390
0
100
AcDbVertex
100
AcDb2dVertex
 10
335.678925
 20
143.236542
 30
0.0
  0
VERTEX
  5
283
100
AcDbEntity
  8
0
370
     0
390
0
100
AcDbVertex
100
AcDb2dVertex
 10
335.31076
 20
142.999512
 30
0.0
  0
VERTEX
  5
284
100
AcDbEntity
  8
0
370
     0
390
0
100
AcDbVertex
100
AcDb2dVertex
 10
335.07373
 20
142.621262
 30
0.0
  0
VERTEX
  5
285
100
AcDbEntity
  8
0
370
     0
390
0
100
AcDbVertex
100
AcDb2dVertex
 10
334.993042
 20
142.121979
 30
0.0
  0
VERTEX
  5
286
100
AcDbEntity
  8
0
370
     0
390
0
100
AcDbVertex
100
AcDb2dVertex
 10
334.993042
 20
142.051376
 30
0.0
  0
VERTEX
  5
287
100
AcDbEntity
  8
0
370
     0
390
0
100
AcDbVertex
100
AcDb2dVertex
 10
335.451965
 20
142.051376
 30
0.0
  0
VERTEX
  5
288
100
AcDbEntity
  8
0
370
     0
390
0
100
AcDbVertex
100
AcDb2dVertex
 10
335.451965
 20
142.091736
 30
0.0
  0
VERTEX
  5
289
100
AcDbEntity
  8
0
370
     0
390
0
100
AcDbVertex
100
AcDb2dVertex
 10
335.497345
 20
142.434662
 30
0.0
  0
VERTEX
  5
28A
100
AcDbEntity
  8
0
370
     0
390
0
100
AcDbVertex
100
AcDb2dVertex
 10
335.633514
 20
142.686829
 30
0.0
  0
VERTEX
  5
28B
100
AcDbEntity
  8
0
370
     0
390
0
100
AcDbVertex
100
AcDb2dVertex
 10
335.850372
 20
142.848206
 30
0.0
  0
VERTEX
  5
28C
100
AcDbEntity
  8
0
370
     0
390
0
100
AcDbVertex
100
AcDb2dVertex
 10
336.137848
 20
142.903687
 30
0.0
  0
VERTEX
  5
28D
100
AcDbEntity
  8
0
370
     0
390
0
100
AcDbVertex
100
AcDb2dVertex
 10
336.430359
 20
142.853256
 30
0.0
  0
VERTEX
  5
28E
100
AcDbEntity
  8
0
370
     0
390
0
100
AcDbVertex
100
AcDb2dVertex
 10
336.647217
 20
142.727173
 30
0.0
  0
VERTEX
  5
28F
100
AcDbEntity
  8
0
370
     0
390
0
100
AcDbVertex
100
AcDb2dVertex
 10
336.788422
 20
142.530487
 30
0.0
  0
VERTEX
  5
290
100
AcDbEntity
  8
0
370
     0
390
0
100
AcDbVertex
100
AcDb2dVertex
 10
336.838867
 20
142.283371
 30
0.0
  0
VERTEX
  5
291
100
AcDbEntity
  8
0
370
     0
390
0
100
AcDbVertex
100
AcDb2dVertex
 10
336.803558
 20
142.051376
 30
0.0
  0
VERTEX
  5
292
100
AcDbEntity
  8
0
370
     0
390
0
100
AcDbVertex
100
AcDb2dVertex
 10
336.707733
 20
141.854691
 30
0.0
  0
VERTEX
  5
293
100
AcDbEntity
  8
0
370
     0
390
0
100
AcDbVertex
100
AcDb2dVertex
 10
336.546356
 20
141.683228
 30
0.0
  0
VERTEX
  5
294
100
AcDbEntity
  8
0
370
     0
390
0
100
AcDbVertex
100
AcDb2dVertex
 10
336.324432
 20
141.531921
 30
0.0
  0
VERTEX
  5
295
100
AcDbEntity
  8
0
370
     0
390
0
100
AcDbVertex
100
AcDb2dVertex
 10
336.026886
 20
141.370544
 30
0.0
  0
VERTEX
  5
296
100
AcDbEntity
  8
0
370
     0
390
0
100
AcDbVertex
100
AcDb2dVertex
 10
335.532654
 20
141.057861
 30
0.0
  0
VERTEX
  5
297
100
AcDbEntity
  8
0
370
     0
390
0
100
AcDbVertex
100
AcDb2dVertex
 10
335.184662
 20
140.725006
 30
0.0
  0
VERTEX
  5
298
100
AcDbEntity
  8
0
370
     0
390
0
100
AcDbVertex
100
AcDb2dVertex
 10
334.977905
 20
140.321548
 30
0.0
  0
VERTEX
  5
299
100
AcDbEntity
  8
0
370
     0
390
0
100
AcDbVertex
100
AcDb2dVertex
 10
334.912354
 20
139.812195
 30
0.0
  0
SEQEND
  5
29A
100
AcDbEntity
  8
0
370
     0
390
0
  0
POLYLINE
  5
29B
100
AcDbEntity
  8
0
370
    13
390
0
 62
    94
100
AcDb2dPolyline
 66
     1
 10
0.0
 20
0.0
 30
0.0
 70
     1
 71
    40
  0
VERTEX
  5
29C
100
AcDbEntity
  8
0
370
     0
390
0
100
AcDbVertex
100
AcDb2dVertex
 10
338.648376
 20
139.797058
 30
0.0
  0
VERTEX
  5
29D
100
AcDbEntity
  8
0
370
     0
390
0
100
AcDbVertex
100
AcDb2dVertex
 10
341.053986
 20
139.797058
 30
0.0
  0
VERTEX
  5
29E
100
AcDbEntity
  8
0
370
     0
390
0
100
AcDbVertex
100
AcDb2dVertex
 10
341.053986
 20
140.230774
 30
0.0
  0
VERTEX
  5
29F
100
AcDbEntity
  8
0
370
     0
390
0
100
AcDbVertex
100
AcDb2dVertex
 10
339.152679
 20
140.230774
 30
0.0
  0
VERTEX
  5
2A0
100
AcDbEntity
  8
0
370
     0
390
0
100
AcDbVertex
100
AcDb2dVertex
 10
339.258606
 20
140.467804
 30
0.0
  0
VERTEX
  5
2A1
100
AcDbEntity
  8
0
370
     0
390
0
100
AcDbVertex
100
AcDb2dVertex
 10
339.440155
 20
140.66449
 30
0.0
  0
VERTEX
  5
2A2
100
AcDbEntity
  8
0
370
     0
390
0
100
AcDbVertex
100
AcDb2dVertex
 10
339.999939
 20
141.022568
 30
0.0
  0
VERTEX
  5
2A3
100
AcDbEntity
  8
0
370
     0
390
0
100
AcDbVertex
100
AcDb2dVertex
 10
340.297485
 20
141.173859
 30
0.0
  0
VERTEX
  5
2A4
100
AcDbEntity
  8
0
370
     0
390
0
100
AcDbVertex
100
AcDb2dVertex
 10
340.630341
 20
141.390717
 30
0.0
  0
VERTEX
  5
2A5
100
AcDbEntity
  8
0
370
     0
390
0
100
AcDbVertex
100
AcDb2dVertex
 10
340.867371
 20
141.642883
 30
0.0
  0
VERTEX
  5
2A6
100
AcDbEntity
  8
0
370
     0
390
0
100
AcDbVertex
100
AcDb2dVertex
 10
341.00354
 20
141.94043
 30
0.0
  0
VERTEX
  5
2A7
100
AcDbEntity
  8
0
370
     0
390
0
100
AcDbVertex
100
AcDb2dVertex
 10
341.053986
 20
142.27832
 30
0.0
  0
VERTEX
  5
2A8
100
AcDbEntity
  8
0
370
     0
390
0
100
AcDbVertex
100
AcDb2dVertex
 10
340.968262
 20
142.701965
 30
0.0
  0
VERTEX
  5
2A9
100
AcDbEntity
  8
0
370
     0
390
0
100
AcDbVertex
100
AcDb2dVertex
 10
340.731232
 20
143.034805
 30
0.0
  0
VERTEX
  5
2AA
100
AcDbEntity
  8
0
370
     0
390
0
100
AcDbVertex
100
AcDb2dVertex
 10
340.368103
 20
143.246628
 30
0.0
  0
VERTEX
  5
2AB
100
AcDbEntity
  8
0
370
     0
390
0
100
AcDbVertex
100
AcDb2dVertex
 10
339.899078
 20
143.322266
 30
0.0
  0
VERTEX
  5
2AC
100
AcDbEntity
  8
0
370
     0
390
0
100
AcDbVertex
100
AcDb2dVertex
 10
339.414948
 20
143.236542
 30
0.0
  0
VERTEX
  5
2AD
100
AcDbEntity
  8
0
370
     0
390
0
100
AcDbVertex
100
AcDb2dVertex
 10
339.046783
 20
142.999512
 30
0.0
  0
VERTEX
  5
2AE
100
AcDbEntity
  8
0
370
     0
390
0
100
AcDbVertex
100
AcDb2dVertex
 10
338.809753
 20
142.621262
 30
0.0
  0
VERTEX
  5
2AF
100
AcDbEntity
  8
0
370
     0
390
0
100
AcDbVertex
100
AcDb2dVertex
 10
338.729065
 20
142.121979
 30
0.0
  0
VERTEX
  5
2B0
100
AcDbEntity
  8
0
370
     0
390
0
100
AcDbVertex
100
AcDb2dVertex
 10
338.729065
 20
142.051376
 30
0.0
  0
VERTEX
  5
2B1
100
AcDbEntity
  8
0
370
     0
390
0
100
AcDbVertex
100
AcDb2dVertex
 10
339.187988
 20
142.051376
 30
0.0
  0
VERTEX
  5
2B2
100
AcDbEntity
  8
0
370
     0
390
0
100
AcDbVertex
100
AcDb2dVertex
 10
339.187988
 20
142.091736
 30
0.0
  0
VERTEX
  5
2B3
100
AcDbEntity
  8
0
370
     0
390
0
100
AcDbVertex
100
AcDb2dVertex
 10
339.233368
 20
142.434662
 30
0.0
  0
VERTEX
  5
2B4
100
AcDbEntity
  8
0
370
     0
390
0
100
AcDbVertex
100
AcDb2dVertex
 10
339.369537
 20
142.686829
 30
0.0
  0
VERTEX
  5
2B5
100
AcDbEntity
  8
0
370
     0
390
0
100
AcDbVertex
100
AcDb2dVertex
 10
339.586395
 20
142.848206
 30
0.0
  0
VERTEX
  5
2B6
100
AcDbEntity
  8
0
370
     0
390
0
100
AcDbVertex
100
AcDb2dVertex
 10
339.873871
 20
142.903687
 30
0.0
  0
VERTEX
  5
2B7
100
AcDbEntity
  8
0
370
     0
390
0
100
AcDbVertex
100
AcDb2dVertex
 10
340.166382
 20
142.853256
 30
0.0
  0
VERTEX
  5
2B8
100
AcDbEntity
  8
0
370
     0
390
0
100
AcDbVertex
100
AcDb2dVertex
 10
340.38324
 20
142.727173
 30
0.0
  0
VERTEX
  5
2B9
100
AcDbEntity
  8
0
370
     0
390
0
100
AcDbVertex
100
AcDb2dVertex
 10
340.524445
 20
142.530487
 30
0.0
  0
VERTEX
  5
2BA
100
AcDbEntity
  8
0
370
     0
390
0
100
AcDbVertex
100
AcDb2dVertex
 10
340.57489
 20
142.283371
 30
0.0
  0
VERTEX
  5
2BB
100
AcDbEntity
  8
0
370
     0
390
0
100
AcDbVertex
100
AcDb2dVertex
 10
340.539581
 20
142.051376
 30
0.0
  0
VERTEX
  5
2BC
100
AcDbEntity
  8
0
370
     0
390
0
100
AcDbVertex
100
AcDb2dVertex
 10
340.443756
 20
141.854691
 30
0.0
  0
VERTEX
  5
2BD
100
AcDbEntity
  8
0
370
     0
390
0
100
AcDbVertex
100
AcDb2dVertex
 10
340.282379
 20
141.683228
 30
0.0
  0
VERTEX
  5
2BE
100
AcDbEntity
  8
0
370
     0
390
0
100
AcDbVertex
100
AcDb2dVertex
 10
340.060455
 20
141.531921
 30
0.0
  0
VERTEX
  5
2BF
100
AcDbEntity
  8
0
370
     0
390
0
100
AcDbVertex
100
AcDb2dVertex
 10
339.762909
 20
141.370544
 30
0.0
  0
VERTEX
  5
2C0
100
AcDbEntity
  8
0
370
     0
390
0
100
AcDbVertex
100
AcDb2dVertex
 10
339.268677
 20
141.057861
 30
0.0
  0
VERTEX
  5
2C1
100
AcDbEntity
  8
0
370
     0
390
0
100
AcDbVertex
100
AcDb2dVertex
 10
338.920685
 20
140.725006
 30
0.0
  0
VERTEX
  5
2C2
100
AcDbEntity
  8
0
370
     0
390
0
100
AcDbVertex
100
AcDb2dVertex
 10
338.713928
 20
140.321548
 30
0.0
  0
VERTEX
  5
2C3
100
AcDbEntity
  8
0
370
     0
390
0
100
AcDbVertex
100
AcDb2dVertex
 10
338.648376
 20
139.812195
 30
0.0
  0
SEQEND
  5
2C4
100
AcDbEntity
  8
0
370
     0
390
0
  0
POLYLINE
  5
2C5
100
AcDbEntity
  8
0
370
    13
390
0
 62
    94
100
AcDb2dPolyline
 66
     1
 10
0.0
 20
0.0
 30
0.0
 70
     1
 71
    17
  0
VERTEX
  5
2C6
100
AcDbEntity
  8
0
370
     0
390
0
100
AcDbVertex
100
AcDb2dVertex
 10
342.399506
 20
141.506714
 30
0.0
  0
VERTEX
  5
2C7
100
AcDbEntity
  8
0
370
     0
390
0
100
AcDbVertex
100
AcDb2dVertex
 10
342.475159
 20
140.71492
 30
0.0
  0
VERTEX
  5
2C8
100
AcDbEntity
  8
0
370
     0
390
0
100
AcDbVertex
100
AcDb2dVertex
 10
342.712189
 20
140.150085
 30
0.0
  0
VERTEX
  5
2C9
100
AcDbEntity
  8
0
370
     0
390
0
100
AcDbVertex
100
AcDb2dVertex
 10
343.090454
 20
139.807144
 30
0.0
  0
VERTEX
  5
2CA
100
AcDbEntity
  8
0
370
     0
390
0
100
AcDbVertex
100
AcDb2dVertex
 10
343.614929
 20
139.696198
 30
0.0
  0
VERTEX
  5
2CB
100
AcDbEntity
  8
0
370
     0
390
0
100
AcDbVertex
100
AcDb2dVertex
 10
344.134399
 20
139.807144
 30
0.0
  0
VERTEX
  5
2CC
100
AcDbEntity
  8
0
370
     0
390
0
100
AcDbVertex
100
AcDb2dVertex
 10
344.512634
 20
140.150085
 30
0.0
  0
VERTEX
  5
2CD
100
AcDbEntity
  8
0
370
     0
390
0
100
AcDbVertex
100
AcDb2dVertex
 10
344.744629
 20
140.71492
 30
0.0
  0
VERTEX
  5
2CE
100
AcDbEntity
  8
0
370
     0
390
0
100
AcDbVertex
100
AcDb2dVertex
 10
344.825317
 20
141.506714
 30
0.0
  0
VERTEX
  5
2CF
100
AcDbEntity
  8
0
370
     0
390
0
100
AcDbVertex
100
AcDb2dVertex
 10
344.744629
 20
142.293457
 30
0.0
  0
VERTEX
  5
2D0
100
AcDbEntity
  8
0
370
     0
390
0
100
AcDbVertex
100
AcDb2dVertex
 10
344.648804
 20
142.60614
 30
0.0
  0
VERTEX
  5
2D1
100
AcDbEntity
  8
0
370
     0
390
0
100
AcDbVertex
100
AcDb2dVertex
 10
344.512634
 20
142.863342
 30
0.0
  0
VERTEX
  5
2D2
100
AcDbEntity
  8
0
370
     0
390
0
100
AcDbVertex
100
AcDb2dVertex
 10
344.134399
 20
143.206284
 30
0.0
  0
VERTEX
  5
2D3
100
AcDbEntity
  8
0
370
     0
390
0
100
AcDbVertex
100
AcDb2dVertex
 10
343.614929
 20
143.322266
 30
0.0
  0
VERTEX
  5
2D4
100
AcDbEntity
  8
0
370
     0
390
0
100
AcDbVertex
100
AcDb2dVertex
 10
343.090454
 20
143.206284
 30
0.0
  0
VERTEX
  5
2D5
100
AcDbEntity
  8
0
370
     0
390
0
100
AcDbVertex
100
AcDb2dVertex
 10
342.712189
 20
142.858307
 30
0.0
  0
VERTEX
  5
2D6
100
AcDbEntity
  8
0
370
     0
390
0
100
AcDbVertex
100
AcDb2dVertex
 10
342.475159
 20
142.293457
 30
0.0
  0
SEQEND
  5
2D7
100
AcDbEntity
  8
0
370
     0
390
0
  0
POLYLINE
  5
2D8
100
AcDbEntity
  8
0
370
    13
390
0
 62
    94
100
AcDb2dPolyline
 66
     1
 10
0.0
 20
0.0
 30
0.0
 70
     1
 71
    16
  0
VERTEX
  5
2D9
100
AcDbEntity
  8
0
370
     0
390
0
100
AcDbVertex
100
AcDb2dVertex
 10
342.883667
 20
141.506714
 30
0.0
  0
VERTEX
  5
2DA
100
AcDbEntity
  8
0
370
     0
390
0
100
AcDbVertex
100
AcDb2dVertex
 10
342.924011
 20
142.116943
 30
0.0
  0
VERTEX
  5
2DB
100
AcDbEntity
  8
0
370
     0
390
0
100
AcDbVertex
100
AcDb2dVertex
 10
343.050079
 20
142.555695
 30
0.0
  0
VERTEX
  5
2DC
100
AcDbEntity
  8
0
370
     0
390
0
100
AcDbVertex
100
AcDb2dVertex
 10
343.277039
 20
142.812912
 30
0.0
  0
VERTEX
  5
2DD
100
AcDbEntity
  8
0
370
     0
390
0
100
AcDbVertex
100
AcDb2dVertex
 10
343.614929
 20
142.903687
 30
0.0
  0
VERTEX
  5
2DE
100
AcDbEntity
  8
0
370
     0
390
0
100
AcDbVertex
100
AcDb2dVertex
 10
343.947784
 20
142.812912
 30
0.0
  0
VERTEX
  5
2DF
100
AcDbEntity
  8
0
370
     0
390
0
100
AcDbVertex
100
AcDb2dVertex
 10
344.174744
 20
142.555695
 30
0.0
  0
VERTEX
  5
2E0
100
AcDbEntity
  8
0
370
     0
390
0
100
AcDbVertex
100
AcDb2dVertex
 10
344.300812
 20
142.116943
 30
0.0
  0
VERTEX
  5
2E1
100
AcDbEntity
  8
0
370
     0
390
0
100
AcDbVertex
100
AcDb2dVertex
 10
344.341156
 20
141.506714
 30
0.0
  0
VERTEX
  5
2E2
100
AcDbEntity
  8
0
370
     0
390
0
100
AcDbVertex
100
AcDb2dVertex
 10
344.300812
 20
140.891434
 30
0.0
  0
VERTEX
  5
2E3
100
AcDbEntity
  8
0
370
     0
390
0
100
AcDbVertex
100
AcDb2dVertex
 10
344.174744
 20
140.452682
 30
0.0
  0
VERTEX
  5
2E4
100
AcDbEntity
  8
0
370
     0
390
0
100
AcDbVertex
100
AcDb2dVertex
 10
343.947784
 20
140.195465
 30
0.0
  0
VERTEX
  5
2E5
100
AcDbEntity
  8
0
370
     0
390
0
100
AcDbVertex
100
AcDb2dVertex
 10
343.614929
 20
140.109741
 30
0.0
  0
VERTEX
  5
2E6
100
AcDbEntity
  8
0
370
     0
390
0
100
AcDbVertex
100
AcDb2dVertex
 10
343.277039
 20
140.195465
 30
0.0
  0
VERTEX
  5
2E7
100
AcDbEntity
  8
0
370
     0
390
0
100
AcDbVertex
100
AcDb2dVertex
 10
343.050079
 20
140.452682
 30
0.0
  0
VERTEX
  5
2E8
100
AcDbEntity
  8
0
370
     0
390
0
100
AcDbVertex
100
AcDb2dVertex
 10
342.924011
 20
140.891434
 30
0.0
  0
SEQEND
  5
2E9
100
AcDbEntity
  8
0
370
     0
390
0
  0
LINE
  5
2EA
100
AcDbEntity
  8
0
370
    13
390
0
 62
    94
100
AcDbLine
 10
229.878906
 20
165.134598
 30
0.0
 11
229.878906
 21
135.797058
 31
0.0
210
0.0
220
0.0
230
1.0
  0
LINE
  5
2EB
100
AcDbEntity
  8
0
370
    13
390
0
 62
    94
100
AcDbLine
 10
449.878906
 20
165.134598
 30
0.0
 11
449.878906
 21
135.797058
 31
0.0
210
0.0
220
0.0
230
1.0
  0
POLYLINE
  5
2EC
100
AcDbEntity
  8
0
370
    13
390
0
 62
     7
100
AcDb2dPolyline
 66
     1
 10
0.0
 20
0.0
 30
0.0
 71
     3
  0
VERTEX
  5
2ED
100
AcDbEntity
  8
0
370
     0
390
0
100
AcDbVertex
100
AcDb2dVertex
 10
231.81073
 20
138.314697
 30
0.0
  0
VERTEX
  5
2EE
100
AcDbEntity
  8
0
370
     0
390
0
100
AcDbVertex
100
AcDb2dVertex
 10
229.878906
 20
137.797058
 30
0.0
  0
VERTEX
  5
2EF
100
AcDbEntity
  8
0
370
     0
390
0
100
AcDbVertex
100
AcDb2dVertex
 10
231.81073
 20
137.279419
 30
0.0
  0
SEQEND
  5
2F0
100
AcDbEntity
  8
0
370
     0
390
0
  0
POLYLINE
  5
2F1
100
AcDbEntity
  8
0
370
    13
390
0
 62
     7
100
AcDb2dPolyline
 66
     1
 10
0.0
 20
0.0
 30
0.0
 71
     3
  0
VERTEX
  5
2F2
100
AcDbEntity
  8
0
370
     0
390
0
100
AcDbVertex
100
AcDb2dVertex
 10
447.947052
 20
137.279419
 30
0.0
  0
VERTEX
  5
2F3
100
AcDbEntity
  8
0
370
     0
390
0
100
AcDbVertex
100
AcDb2dVertex
 10
449.878906
 20
137.797058
 30
0.0
  0
VERTEX
  5
2F4
100
AcDbEntity
  8
0
370
     0
390
0
100
AcDbVertex
100
AcDb2dVertex
 10
447.947052
 20
138.314697
 30
0.0
  0
SEQEND
  5
2F5
100
AcDbEntity
  8
0
370
     0
390
0
  0
LINE
  5
2F6
100
AcDbEntity
  8
0
370
    13
390
0
 62
    94
100
AcDbLine
 10
229.878906
 20
137.797058
 30
0.0
 11
449.878906
 21
137.797058
 31
0.0
210
0.0
220
0.0
230
1.0
  0
POLYLINE
  5
2F7
100
AcDbEntity
  8
0
370
    13
390
0
 62
    94
100
AcDb2dPolyline
 66
     1
 10
0.0
 20
0.0
 30
0.0
 70
     1
 71
    35
  0
VERTEX
  5
2F8
100
AcDbEntity
  8
0
370
     0
390
0
100
AcDbVertex
100
AcDb2dVertex
 10
471.760193
 20
140.709885
 30
0.0
  0
VERTEX
  5
2F9
100
AcDbEntity
  8
0
370
     0
390
0
100
AcDbVertex
100
AcDb2dVertex
 10
471.871124
 20
140.296341
 30
0.0
  0
VERTEX
  5
2FA
100
AcDbEntity
  8
0
370
     0
390
0
100
AcDbVertex
100
AcDb2dVertex
 10
472.118256
 20
139.973572
 30
0.0
  0
VERTEX
  5
2FB
100
AcDbEntity
  8
0
370
     0
390
0
100
AcDbVertex
100
AcDb2dVertex
 10
472.481354
 20
139.771851
 30
0.0
  0
VERTEX
  5
2FC
100
AcDbEntity
  8
0
370
     0
390
0
100
AcDbVertex
100
AcDb2dVertex
 10
472.945343
 20
139.696198
 30
0.0
  0
VERTEX
  5
2FD
100
AcDbEntity
  8
0
370
     0
390
0
100
AcDbVertex
100
AcDb2dVertex
 10
473.454712
 20
139.786972
 30
0.0
  0
VERTEX
  5
2FE
100
AcDbEntity
  8
0
370
     0
390
0
100
AcDbVertex
100
AcDb2dVertex
 10
473.853119
 20
140.034088
 30
0.0
  0
VERTEX
  5
2FF
100
AcDbEntity
  8
0
370
     0
390
0
100
AcDbVertex
100
AcDb2dVertex
 10
474.105286
 20
140.42746
 30
0.0
  0
VERTEX
  5
300
100
AcDbEntity
  8
0
370
     0
390
0
100
AcDbVertex
100
AcDb2dVertex
 10
474.201111
 20
140.931793
 30
0.0
  0
VERTEX
  5
301
100
AcDbEntity
  8
0
370
     0
390
0
100
AcDbVertex
100
AcDb2dVertex
 10
474.115356
 20
141.400803
 30
0.0
  0
VERTEX
  5
302
100
AcDbEntity
  8
0
370
     0
390
0
100
AcDbVertex
100
AcDb2dVertex
 10
473.873291
 20
141.768951
 30
0.0
  0
VERTEX
  5
303
100
AcDbEntity
  8
0
370
     0
390
0
100
AcDbVertex
100
AcDb2dVertex
 10
473.495056
 20
142.005997
 30
0.0
  0
VERTEX
  5
304
100
AcDbEntity
  8
0
370
     0
390
0
100
AcDbVertex
100
AcDb2dVertex
 10
473.005859
 20
142.091736
 30
0.0
  0
VERTEX
  5
305
100
AcDbEntity
  8
0
370
     0
390
0
100
AcDbVertex
100
AcDb2dVertex
 10
472.627625
 20
142.031204
 30
0.0
  0
VERTEX
  5
306
100
AcDbEntity
  8
0
370
     0
390
0
100
AcDbVertex
100
AcDb2dVertex
 10
472.335114
 20
141.864777
 30
0.0
  0
VERTEX
  5
307
100
AcDbEntity
  8
0
370
     0
390
0
100
AcDbVertex
100
AcDb2dVertex
 10
472.476318
 20
142.807861
 30
0.0
  0
VERTEX
  5
308
100
AcDbEntity
  8
0
370
     0
390
0
100
AcDbVertex
100
AcDb2dVertex
 10
474.00946
 20
142.807861
 30
0.0
  0
VERTEX
  5
309
100
AcDbEntity
  8
0
370
     0
390
0
100
AcDbVertex
100
AcDb2dVertex
 10
474.00946
 20
143.221405
 30
0.0
  0
VERTEX
  5
30A
100
AcDbEntity
  8
0
370
     0
390
0
100
AcDbVertex
100
AcDb2dVertex
 10
472.138428
 20
143.221405
 30
0.0
  0
VERTEX
  5
30B
100
AcDbEntity
  8
0
370
     0
390
0
100
AcDbVertex
100
AcDb2dVertex
 10
471.861053
 20
141.365509
 30
0.0
  0
VERTEX
  5
30C
100
AcDbEntity
  8
0
370
     0
390
0
100
AcDbVertex
100
AcDb2dVertex
 10
472.264496
 20
141.365509
 30
0.0
  0
VERTEX
  5
30D
100
AcDbEntity
  8
0
370
     0
390
0
100
AcDbVertex
100
AcDb2dVertex
 10
472.557007
 20
141.602539
 30
0.0
  0
VERTEX
  5
30E
100
AcDbEntity
  8
0
370
     0
390
0
100
AcDbVertex
100
AcDb2dVertex
 10
472.930206
 20
141.688263
 30
0.0
  0
VERTEX
  5
30F
100
AcDbEntity
  8
0
370
     0
390
0
100
AcDbVertex
100
AcDb2dVertex
 10
473.252991
 20
141.632797
 30
0.0
  0
VERTEX
  5
310
100
AcDbEntity
  8
0
370
     0
390
0
100
AcDbVertex
100
AcDb2dVertex
 10
473.500092
 20
141.471405
 30
0.0
  0
VERTEX
  5
311
100
AcDbEntity
  8
0
370
     0
390
0
100
AcDbVertex
100
AcDb2dVertex
 10
473.656433
 20
141.224289
 30
0.0
  0
VERTEX
  5
312
100
AcDbEntity
  8
0
370
     0
390
0
100
AcDbVertex
100
AcDb2dVertex
 10
473.711914
 20
140.90657
 30
0.0
  0
VERTEX
  5
313
100
AcDbEntity
  8
0
370
     0
390
0
100
AcDbVertex
100
AcDb2dVertex
 10
473.656433
 20
140.588837
 30
0.0
  0
VERTEX
  5
314
100
AcDbEntity
  8
0
370
     0
390
0
100
AcDbVertex
100
AcDb2dVertex
 10
473.495056
 20
140.341736
 30
0.0
  0
VERTEX
  5
315
100
AcDbEntity
  8
0
370
     0
390
0
100
AcDbVertex
100
AcDb2dVertex
 10
473.247925
 20
140.185394
 30
0.0
  0
VERTEX
  5
316
100
AcDbEntity
  8
0
370
     0
390
0
100
AcDbVertex
100
AcDb2dVertex
 10
472.930206
 20
140.129913
 30
0.0
  0
VERTEX
  5
317
100
AcDbEntity
  8
0
370
     0
390
0
100
AcDbVertex
100
AcDb2dVertex
 10
472.662933
 20
140.165222
 30
0.0
  0
VERTEX
  5
318
100
AcDbEntity
  8
0
370
     0
390
0
100
AcDbVertex
100
AcDb2dVertex
 10
472.456146
 20
140.281204
 30
0.0
  0
VERTEX
  5
319
100
AcDbEntity
  8
0
370
     0
390
0
100
AcDbVertex
100
AcDb2dVertex
 10
472.30484
 20
140.462769
 30
0.0
  0
VERTEX
  5
31A
100
AcDbEntity
  8
0
370
     0
390
0
100
AcDbVertex
100
AcDb2dVertex
 10
472.229187
 20
140.709885
 30
0.0
  0
SEQEND
  5
31B
100
AcDbEntity
  8
0
370
     0
390
0
  0
POLYLINE
  5
31C
100
AcDbEntity
  8
0
370
    13
390
0
 62
    94
100
AcDb2dPolyline
 66
     1
 10
0.0
 20
0.0
 30
0.0
 70
     1
 71
    17
  0
VERTEX
  5
31D
100
AcDbEntity
  8
0
370
     0
390
0
100
AcDbVertex
100
AcDb2dVertex
 10
475.531494
 20
141.506714
 30
0.0
  0
VERTEX
  5
31E
100
AcDbEntity
  8
0
370
     0
390
0
100
AcDbVertex
100
AcDb2dVertex
 10
475.607147
 20
140.71492
 30
0.0
  0
VERTEX
  5
31F
100
AcDbEntity
  8
0
370
     0
390
0
100
AcDbVertex
100
AcDb2dVertex
 10
475.844177
 20
140.150085
 30
0.0
  0
VERTEX
  5
320
100
AcDbEntity
  8
0
370
     0
390
0
100
AcDbVertex
100
AcDb2dVertex
 10
476.222443
 20
139.807144
 30
0.0
  0
VERTEX
  5
321
100
AcDbEntity
  8
0
370
     0
390
0
100
AcDbVertex
100
AcDb2dVertex
 10
476.746918
 20
139.696198
 30
0.0
  0
VERTEX
  5
322
100
AcDbEntity
  8
0
370
     0
390
0
100
AcDbVertex
100
AcDb2dVertex
 10
477.266388
 20
139.807144
 30
0.0
  0
VERTEX
  5
323
100
AcDbEntity
  8
0
370
     0
390
0
100
AcDbVertex
100
AcDb2dVertex
 10
477.644623
 20
140.150085
 30
0.0
  0
VERTEX
  5
324
100
AcDbEntity
  8
0
370
     0
390
0
100
AcDbVertex
100
AcDb2dVertex
 10
477.876617
 20
140.71492
 30
0.0
  0
VERTEX
  5
325
100
AcDbEntity
  8
0
370
     0
390
0
100
AcDbVertex
100
AcDb2dVertex
 10
477.957306
 20
141.506714
 30
0.0
  0
VERTEX
  5
326
100
AcDbEntity
  8
0
370
     0
390
0
100
AcDbVertex
100
AcDb2dVertex
 10
477.876617
 20
142.293457
 30
0.0
  0
VERTEX
  5
327
100
AcDbEntity
  8
0
370
     0
390
0
100
AcDbVertex
100
AcDb2dVertex
 10
477.780792
 20
142.60614
 30
0.0
  0
VERTEX
  5
328
100
AcDbEntity
  8
0
370
     0
390
0
100
AcDbVertex
100
AcDb2dVertex
 10
477.644623
 20
142.863342
 30
0.0
  0
VERTEX
  5
329
100
AcDbEntity
  8
0
370
     0
390
0
100
AcDbVertex
100
AcDb2dVertex
 10
477.266388
 20
143.206284
 30
0.0
  0
VERTEX
  5
32A
100
AcDbEntity
  8
0
370
     0
390
0
100
AcDbVertex
100
AcDb2dVertex
 10
476.746918
 20
143.322266
 30
0.0
  0
VERTEX
  5
32B
100
AcDbEntity
  8
0
370
     0
390
0
100
AcDbVertex
100
AcDb2dVertex
 10
476.222443
 20
143.206284
 30
0.0
  0
VERTEX
  5
32C
100
AcDbEntity
  8
0
370
     0
390
0
100
AcDbVertex
100
AcDb2dVertex
 10
475.844177
 20
142.858307
 30
0.0
  0
VERTEX
  5
32D
100
AcDbEntity
  8
0
370
     0
390
0
100
AcDbVertex
100
AcDb2dVertex
 10
475.607147
 20
142.293457
 30
0.0
  0
SEQEND
  5
32E
100
AcDbEntity
  8
0
370
     0
390
0
  0
POLYLINE
  5
32F
100
AcDbEntity
  8
0
370
    13
390
0
 62
    94
100
AcDb2dPolyline
 66
     1
 10
0.0
 20
0.0
 30
0.0
 70
     1
 71
    16
  0
VERTEX
  5
330
100
AcDbEntity
  8
0
370
     0
390
0
100
AcDbVertex
100
AcDb2dVertex
 10
476.015656
 20
141.506714
 30
0.0
  0
VERTEX
  5
331
100
AcDbEntity
  8
0
370
     0
390
0
100
AcDbVertex
100
AcDb2dVertex
 10
476.056
 20
142.116943
 30
0.0
  0
VERTEX
  5
332
100
AcDbEntity
  8
0
370
     0
390
0
100
AcDbVertex
100
AcDb2dVertex
 10
476.182068
 20
142.555695
 30
0.0
  0
VERTEX
  5
333
100
AcDbEntity
  8
0
370
     0
390
0
100
AcDbVertex
100
AcDb2dVertex
 10
476.409027
 20
142.812912
 30
0.0
  0
VERTEX
  5
334
100
AcDbEntity
  8
0
370
     0
390
0
100
AcDbVertex
100
AcDb2dVertex
 10
476.746918
 20
142.903687
 30
0.0
  0
VERTEX
  5
335
100
AcDbEntity
  8
0
370
     0
390
0
100
AcDbVertex
100
AcDb2dVertex
 10
477.079773
 20
142.812912
 30
0.0
  0
VERTEX
  5
336
100
AcDbEntity
  8
0
370
     0
390
0
100
AcDbVertex
100
AcDb2dVertex
 10
477.306732
 20
142.555695
 30
0.0
  0
VERTEX
  5
337
100
AcDbEntity
  8
0
370
     0
390
0
100
AcDbVertex
100
AcDb2dVertex
 10
477.4328
 20
142.116943
 30
0.0
  0
VERTEX
  5
338
100
AcDbEntity
  8
0
370
     0
390
0
100
AcDbVertex
100
AcDb2dVertex
 10
477.473145
 20
141.506714
 30
0.0
  0
VERTEX
  5
339
100
AcDbEntity
  8
0
370
     0
390
0
100
AcDbVertex
100
AcDb2dVertex
 10
477.4328
 20
140.891434
 30
0.0
  0
VERTEX
  5
33A
100
AcDbEntity
  8
0
370
     0
390
0
100
AcDbVertex
100
AcDb2dVertex
 10
477.306732
 20
140.452682
 30
0.0
  0
VERTEX
  5
33B
100
AcDbEntity
  8
0
370
     0
390
0
100
AcDbVertex
100
AcDb2dVertex
 10
477.079773
 20
140.195465
 30
0.0
  0
VERTEX
  5
33C
100
AcDbEntity
  8
0
370
     0
390
0
100
AcDbVertex
100
AcDb2dVertex
 10
476.746918
 20
140.109741
 30
0.0
  0
VERTEX
  5
33D
100
AcDbEntity
  8
0
370
     0
390
0
100
AcDbVertex
100
AcDb2dVertex
 10
476.409027
 20
140.195465
 30
0.0
  0
VERTEX
  5
33E
100
AcDbEntity
  8
0
370
     0
390
0
100
AcDbVertex
100
AcDb2dVertex
 10
476.182068
 20
140.452682
 30
0.0
  0
VERTEX
  5
33F
100
AcDbEntity
  8
0
370
     0
390
0
100
AcDbVertex
100
AcDb2dVertex
 10
476.056
 20
140.891434
 30
0.0
  0
SEQEND
  5
340
100
AcDbEntity
  8
0
370
     0
390
0
  0
LINE
  5
341
100
AcDbEntity
  8
0
370
    13
390
0
 62
    94
100
AcDbLine
 10
449.878906
 20
166.469208
 30
0.0
 11
449.878906
 21
135.797058
 31
0.0
210
0.0
220
0.0
230
1.0
  0
LINE
  5
342
100
AcDbEntity
  8
0
370
    13
390
0
 62
    94
100
AcDbLine
 10
499.878906
 20
159.819214
 30
0.0
 11
499.878906
 21
135.797058
 31
0.0
210
0.0
220
0.0
230
1.0
  0
POLYLINE
  5
343
100
AcDbEntity
  8
0
370
    13
390
0
 62
     7
100
AcDb2dPolyline
 66
     1
 10
0.0
 20
0.0
 30
0.0
 71
     3
  0
VERTEX
  5
344
100
AcDbEntity
  8
0
370
     0
390
0
100
AcDbVertex
100
AcDb2dVertex
 10
451.81073
 20
138.314697
 30
0.0
  0
VERTEX
  5
345
100
AcDbEntity
  8
0
370
     0
390
0
100
AcDbVertex
100
AcDb2dVertex
 10
449.878906
 20
137.797058
 30
0.0
  0
VERTEX
  5
346
100
AcDbEntity
  8
0
370
     0
390
0
100
AcDbVertex
100
AcDb2dVertex
 10
451.81073
 20
137.279419
 30
0.0
  0
SEQEND
  5
347
100
AcDbEntity
  8
0
370
     0
390
0
  0
POLYLINE
  5
348
100
AcDbEntity
  8
0
370
    13
390
0
 62
     7
100
AcDb2dPolyline
 66
     1
 10
0.0
 20
0.0
 30
0.0
 71
     3
  0
VERTEX
  5
349
100
AcDbEntity
  8
0
370
     0
390
0
100
AcDbVertex
100
AcDb2dVertex
 10
497.947052
 20
137.279419
 30
0.0
  0
VERTEX
  5
34A
100
AcDbEntity
  8
0
370
     0
390
0
100
AcDbVertex
100
AcDb2dVertex
 10
499.878906
 20
137.797058
 30
0.0
  0
VERTEX
  5
34B
100
AcDbEntity
  8
0
370
     0
390
0
100
AcDbVertex
100
AcDb2dVertex
 10
497.947052
 20
138.314697
 30
0.0
  0
SEQEND
  5
34C
100
AcDbEntity
  8
0
370
     0
390
0
  0
LINE
  5
34D
100
AcDbEntity
  8
0
370
    13
390
0
 62
    94
100
AcDbLine
 10
449.878906
 20
137.797058
 30
0.0
 11
499.878906
 21
137.797058
 31
0.0
210
0.0
220
0.0
230
1.0
  0
POLYLINE
  5
34E
100
AcDbEntity
  8
0
370
    13
390
0
 62
    94
100
AcDb2dPolyline
 66
     1
 10
0.0
 20
0.0
 30
0.0
 70
     1
 71
    10
  0
VERTEX
  5
34F
100
AcDbEntity
  8
0
370
     0
390
0
100
AcDbVertex
100
AcDb2dVertex
 10
503.129181
 20
210.559494
 30
0.0
  0
VERTEX
  5
350
100
AcDbEntity
  8
0
370
     0
390
0
100
AcDbVertex
100
AcDb2dVertex
 10
503.588104
 20
210.559494
 30
0.0
  0
VERTEX
  5
351
100
AcDbEntity
  8
0
370
     0
390
0
100
AcDbVertex
100
AcDb2dVertex
 10
503.588104
 20
214.084717
 30
0.0
  0
VERTEX
  5
352
100
AcDbEntity
  8
0
370
     0
390
0
100
AcDbVertex
100
AcDb2dVertex
 10
503.245148
 20
214.084717
 30
0.0
  0
VERTEX
  5
353
100
AcDbEntity
  8
0
370
     0
390
0
100
AcDbVertex
100
AcDb2dVertex
 10
503.154388
 20
213.777069
 30
0.0
  0
VERTEX
  5
354
100
AcDbEntity
  8
0
370
     0
390
0
100
AcDbVertex
100
AcDb2dVertex
 10
502.972839
 20
213.570297
 30
0.0
  0
VERTEX
  5
355
100
AcDbEntity
  8
0
370
     0
390
0
100
AcDbVertex
100
AcDb2dVertex
 10
502.695465
 20
213.449265
 30
0.0
  0
VERTEX
  5
356
100
AcDbEntity
  8
0
370
     0
390
0
100
AcDbVertex
100
AcDb2dVertex
 10
502.312164
 20
213.40892
 30
0.0
  0
VERTEX
  5
357
100
AcDbEntity
  8
0
370
     0
390
0
100
AcDbVertex
100
AcDb2dVertex
 10
502.312164
 20
213.050842
 30
0.0
  0
VERTEX
  5
358
100
AcDbEntity
  8
0
370
     0
390
0
100
AcDbVertex
100
AcDb2dVertex
 10
503.129181
 20
213.050842
 30
0.0
  0
SEQEND
  5
359
100
AcDbEntity
  8
0
370
     0
390
0
  0
POLYLINE
  5
35A
100
AcDbEntity
  8
0
370
    13
390
0
 62
    94
100
AcDb2dPolyline
 66
     1
 10
0.0
 20
0.0
 30
0.0
 70
     1
 71
    40
  0
VERTEX
  5
35B
100
AcDbEntity
  8
0
370
     0
390
0
100
AcDbVertex
100
AcDb2dVertex
 10
505.725433
 20
210.559494
 30
0.0
  0
VERTEX
  5
35C
100
AcDbEntity
  8
0
370
     0
390
0
100
AcDbVertex
100
AcDb2dVertex
 10
508.131042
 20
210.559494
 30
0.0
  0
VERTEX
  5
35D
100
AcDbEntity
  8
0
370
     0
390
0
100
AcDbVertex
100
AcDb2dVertex
 10
508.131042
 20
210.99321
 30
0.0
  0
VERTEX
  5
35E
100
AcDbEntity
  8
0
370
     0
390
0
100
AcDbVertex
100
AcDb2dVertex
 10
506.229736
 20
210.99321
 30
0.0
  0
VERTEX
  5
35F
100
AcDbEntity
  8
0
370
     0
390
0
100
AcDbVertex
100
AcDb2dVertex
 10
506.335663
 20
211.23024
 30
0.0
  0
VERTEX
  5
360
100
AcDbEntity
  8
0
370
     0
390
0
100
AcDbVertex
100
AcDb2dVertex
 10
506.517212
 20
211.426926
 30
0.0
  0
VERTEX
  5
361
100
AcDbEntity
  8
0
370
     0
390
0
100
AcDbVertex
100
AcDb2dVertex
 10
507.076996
 20
211.785004
 30
0.0
  0
VERTEX
  5
362
100
AcDbEntity
  8
0
370
     0
390
0
100
AcDbVertex
100
AcDb2dVertex
 10
507.374542
 20
211.936295
 30
0.0
  0
VERTEX
  5
363
100
AcDbEntity
  8
0
370
     0
390
0
100
AcDbVertex
100
AcDb2dVertex
 10
507.707397
 20
212.153152
 30
0.0
  0
VERTEX
  5
364
100
AcDbEntity
  8
0
370
     0
390
0
100
AcDbVertex
100
AcDb2dVertex
 10
507.944427
 20
212.405319
 30
0.0
  0
VERTEX
  5
365
100
AcDbEntity
  8
0
370
     0
390
0
100
AcDbVertex
100
AcDb2dVertex
 10
508.080597
 20
212.702866
 30
0.0
  0
VERTEX
  5
366
100
AcDbEntity
  8
0
370
     0
390
0
100
AcDbVertex
100
AcDb2dVertex
 10
508.131042
 20
213.040771
 30
0.0
  0
VERTEX
  5
367
100
AcDbEntity
  8
0
370
     0
390
0
100
AcDbVertex
100
AcDb2dVertex
 10
508.045319
 20
213.464386
 30
0.0
  0
VERTEX
  5
368
100
AcDbEntity
  8
0
370
     0
390
0
100
AcDbVertex
100
AcDb2dVertex
 10
507.808289
 20
213.797241
 30
0.0
  0
VERTEX
  5
369
100
AcDbEntity
  8
0
370
     0
390
0
100
AcDbVertex
100
AcDb2dVertex
 10
507.44516
 20
214.009064
 30
0.0
  0
VERTEX
  5
36A
100
AcDbEntity
  8
0
370
     0
390
0
100
AcDbVertex
100
AcDb2dVertex
 10
506.976135
 20
214.084717
 30
0.0
  0
VERTEX
  5
36B
100
AcDbEntity
  8
0
370
     0
390
0
100
AcDbVertex
100
AcDb2dVertex
 10
506.492004
 20
213.998978
 30
0.0
  0
VERTEX
  5
36C
100
AcDbEntity
  8
0
370
     0
390
0
100
AcDbVertex
100
AcDb2dVertex
 10
506.12384
 20
213.761948
 30
0.0
  0
VERTEX
  5
36D
100
AcDbEntity
  8
0
370
     0
390
0
100
AcDbVertex
100
AcDb2dVertex
 10
505.88681
 20
213.383698
 30
0.0
  0
VERTEX
  5
36E
100
AcDbEntity
  8
0
370
     0
390
0
100
AcDbVertex
100
AcDb2dVertex
 10
505.806122
 20
212.88443
 30
0.0
  0
VERTEX
  5
36F
100
AcDbEntity
  8
0
370
     0
390
0
100
AcDbVertex
100
AcDb2dVertex
 10
505.806122
 20
212.813812
 30
0.0
  0
VERTEX
  5
370
100
AcDbEntity
  8
0
370
     0
390
0
100
AcDbVertex
100
AcDb2dVertex
 10
506.265045
 20
212.813812
 30
0.0
  0
VERTEX
  5
371
100
AcDbEntity
  8
0
370
     0
390
0
100
AcDbVertex
100
AcDb2dVertex
 10
506.265045
 20
212.854156
 30
0.0
  0
VERTEX
  5
372
100
AcDbEntity
  8
0
370
     0
390
0
100
AcDbVertex
100
AcDb2dVertex
 10
506.310425
 20
213.197098
 30
0.0
  0
VERTEX
  5
373
100
AcDbEntity
  8
0
370
     0
390
0
100
AcDbVertex
100
AcDb2dVertex
 10
506.446594
 20
213.449265
 30
0.0
  0
VERTEX
  5
374
100
AcDbEntity
  8
0
370
     0
390
0
100
AcDbVertex
100
AcDb2dVertex
 10
506.663452
 20
213.610641
 30
0.0
  0
VERTEX
  5
375
100
AcDbEntity
  8
0
370
     0
390
0
100
AcDbVertex
100
AcDb2dVertex
 10
506.950928
 20
213.666122
 30
0.0
  0
VERTEX
  5
376
100
AcDbEntity
  8
0
370
     0
390
0
100
AcDbVertex
100
AcDb2dVertex
 10
507.243439
 20
213.615692
 30
0.0
  0
VERTEX
  5
377
100
AcDbEntity
  8
0
370
     0
390
0
100
AcDbVertex
100
AcDb2dVertex
 10
507.460297
 20
213.489609
 30
0.0
  0
VERTEX
  5
378
100
AcDbEntity
  8
0
370
     0
390
0
100
AcDbVertex
100
AcDb2dVertex
 10
507.601501
 20
213.292923
 30
0.0
  0
VERTEX
  5
379
100
AcDbEntity
  8
0
370
     0
390
0
100
AcDbVertex
100
AcDb2dVertex
 10
507.651947
 20
213.045807
 30
0.0
  0
VERTEX
  5
37A
100
AcDbEntity
  8
0
370
     0
390
0
100
AcDbVertex
100
AcDb2dVertex
 10
507.616638
 20
212.813812
 30
0.0
  0
VERTEX
  5
37B
100
AcDbEntity
  8
0
370
     0
390
0
100
AcDbVertex
100
AcDb2dVertex
 10
507.520813
 20
212.617126
 30
0.0
  0
VERTEX
  5
37C
100
AcDbEntity
  8
0
370
     0
390
0
100
AcDbVertex
100
AcDb2dVertex
 10
507.359436
 20
212.445663
 30
0.0
  0
VERTEX
  5
37D
100
AcDbEntity
  8
0
370
     0
390
0
100
AcDbVertex
100
AcDb2dVertex
 10
507.137512
 20
212.294373
 30
0.0
  0
VERTEX
  5
37E
100
AcDbEntity
  8
0
370
     0
390
0
100
AcDbVertex
100
AcDb2dVertex
 10
506.839966
 20
212.13298
 30
0.0
  0
VERTEX
  5
37F
100
AcDbEntity
  8
0
370
     0
390
0
100
AcDbVertex
100
AcDb2dVertex
 10
506.345734
 20
211.820297
 30
0.0
  0
VERTEX
  5
380
100
AcDbEntity
  8
0
370
     0
390
0
100
AcDbVertex
100
AcDb2dVertex
 10
505.997742
 20
211.487457
 30
0.0
  0
VERTEX
  5
381
100
AcDbEntity
  8
0
370
     0
390
0
100
AcDbVertex
100
AcDb2dVertex
 10
505.790985
 20
211.083984
 30
0.0
  0
VERTEX
  5
382
100
AcDbEntity
  8
0
370
     0
390
0
100
AcDbVertex
100
AcDb2dVertex
 10
505.725433
 20
210.574615
 30
0.0
  0
SEQEND
  5
383
100
AcDbEntity
  8
0
370
     0
390
0
  0
POLYLINE
  5
384
100
AcDbEntity
  8
0
370
    13
390
0
 62
    94
100
AcDb2dPolyline
 66
     1
 10
0.0
 20
0.0
 30
0.0
 70
     1
 71
    10
  0
VERTEX
  5
385
100
AcDbEntity
  8
0
370
     0
390
0
100
AcDbVertex
100
AcDb2dVertex
 10
510.601227
 20
210.559494
 30
0.0
  0
VERTEX
  5
386
100
AcDbEntity
  8
0
370
     0
390
0
100
AcDbVertex
100
AcDb2dVertex
 10
511.06015
 20
210.559494
 30
0.0
  0
VERTEX
  5
387
100
AcDbEntity
  8
0
370
     0
390
0
100
AcDbVertex
100
AcDb2dVertex
 10
511.06015
 20
214.084717
 30
0.0
  0
VERTEX
  5
388
100
AcDbEntity
  8
0
370
     0
390
0
100
AcDbVertex
100
AcDb2dVertex
 10
510.717194
 20
214.084717
 30
0.0
  0
VERTEX
  5
389
100
AcDbEntity
  8
0
370
     0
390
0
100
AcDbVertex
100
AcDb2dVertex
 10
510.626434
 20
213.777069
 30
0.0
  0
VERTEX
  5
38A
100
AcDbEntity
  8
0
370
     0
390
0
100
AcDbVertex
100
AcDb2dVertex
 10
510.444885
 20
213.570297
 30
0.0
  0
VERTEX
  5
38B
100
AcDbEntity
  8
0
370
     0
390
0
100
AcDbVertex
100
AcDb2dVertex
 10
510.167511
 20
213.449265
 30
0.0
  0
VERTEX
  5
38C
100
AcDbEntity
  8
0
370
     0
390
0
100
AcDbVertex
100
AcDb2dVertex
 10
509.78421
 20
213.40892
 30
0.0
  0
VERTEX
  5
38D
100
AcDbEntity
  8
0
370
     0
390
0
100
AcDbVertex
100
AcDb2dVertex
 10
509.78421
 20
213.050842
 30
0.0
  0
VERTEX
  5
38E
100
AcDbEntity
  8
0
370
     0
390
0
100
AcDbVertex
100
AcDb2dVertex
 10
510.601227
 20
213.050842
 30
0.0
  0
SEQEND
  5
38F
100
AcDbEntity
  8
0
370
     0
390
0
  0
POLYLINE
  5
390
100
AcDbEntity
  8
0
370
    13
390
0
 62
    94
100
AcDb2dPolyline
 66
     1
 10
0.0
 20
0.0
 30
0.0
 70
     1
 71
     4
  0
VERTEX
  5
391
100
AcDbEntity
  8
0
370
     0
390
0
100
AcDbVertex
100
AcDb2dVertex
 10
514.080078
 20
210.559494
 30
0.0
  0
VERTEX
  5
392
100
AcDbEntity
  8
0
370
     0
390
0
100
AcDbVertex
100
AcDb2dVertex
 10
514.776001
 20
210.559494
 30
0.0
  0
VERTEX
  5
393
100
AcDbEntity
  8
0
370
     0
390
0
100
AcDbVertex
100
AcDb2dVertex
 10
514.776001
 20
211.310944
 30
0.0
  0
VERTEX
  5
394
100
AcDbEntity
  8
0
370
     0
390
0
100
AcDbVertex
100
AcDb2dVertex
 10
514.080078
 20
211.310944
 30
0.0
  0
SEQEND
  5
395
100
AcDbEntity
  8
0
370
     0
390
0
  0
POLYLINE
  5
396
100
AcDbEntity
  8
0
370
    13
390
0
 62
    94
100
AcDb2dPolyline
 66
     1
 10
0.0
 20
0.0
 30
0.0
 70
     1
 71
    35
  0
VERTEX
  5
397
100
AcDbEntity
  8
0
370
     0
390
0
100
AcDbVertex
100
AcDb2dVertex
 10
519.37439
 20
213.116409
 30
0.0
  0
VERTEX
  5
398
100
AcDbEntity
  8
0
370
     0
390
0
100
AcDbVertex
100
AcDb2dVertex
 10
519.278564
 20
213.524902
 30
0.0
  0
VERTEX
  5
399
100
AcDbEntity
  8
0
370
     0
390
0
100
AcDbVertex
100
AcDb2dVertex
 10
519.056702
 20
213.827515
 30
0.0
  0
VERTEX
  5
39A
100
AcDbEntity
  8
0
370
     0
390
0
100
AcDbVertex
100
AcDb2dVertex
 10
518.713745
 20
214.01915
 30
0.0
  0
VERTEX
  5
39B
100
AcDbEntity
  8
0
370
     0
390
0
100
AcDbVertex
100
AcDb2dVertex
 10
518.269958
 20
214.084717
 30
0.0
  0
VERTEX
  5
39C
100
AcDbEntity
  8
0
370
     0
390
0
100
AcDbVertex
100
AcDb2dVertex
 10
517.972412
 20
214.049408
 30
0.0
  0
VERTEX
  5
39D
100
AcDbEntity
  8
0
370
     0
390
0
100
AcDbVertex
100
AcDb2dVertex
 10
517.71521
 20
213.953583
 30
0.0
  0
VERTEX
  5
39E
100
AcDbEntity
  8
0
370
     0
390
0
100
AcDbVertex
100
AcDb2dVertex
 10
517.488281
 20
213.797241
 30
0.0
  0
VERTEX
  5
39F
100
AcDbEntity
  8
0
370
     0
390
0
100
AcDbVertex
100
AcDb2dVertex
 10
517.296631
 20
213.575348
 30
0.0
  0
VERTEX
  5
3A0
100
AcDbEntity
  8
0
370
     0
390
0
100
AcDbVertex
100
AcDb2dVertex
 10
517.145264
 20
213.297974
 30
0.0
  0
VERTEX
  5
3A1
100
AcDbEntity
  8
0
370
     0
390
0
100
AcDbVertex
100
AcDb2dVertex
 10
517.034363
 20
212.960068
 30
0.0
  0
VERTEX
  5
3A2
100
AcDbEntity
  8
0
370
     0
390
0
100
AcDbVertex
100
AcDb2dVertex
 10
516.963745
 20
212.561661
 30
0.0
  0
VERTEX
  5
3A3
100
AcDbEntity
  8
0
370
     0
390
0
100
AcDbVertex
100
AcDb2dVertex
 10
516.943604
 20
212.112808
 30
0.0
  0
VERTEX
  5
3A4
100
AcDbEntity
  8
0
370
     0
390
0
100
AcDbVertex
100
AcDb2dVertex
 10
517.024292
 20
211.396667
 30
0.0
  0
VERTEX
  5
3A5
100
AcDbEntity
  8
0
370
     0
390
0
100
AcDbVertex
100
AcDb2dVertex
 10
517.271362
 20
210.877213
 30
0.0
  0
VERTEX
  5
3A6
100
AcDbEntity
  8
0
370
     0
390
0
100
AcDbVertex
100
AcDb2dVertex
 10
517.6698
 20
210.564545
 30
0.0
  0
VERTEX
  5
3A7
100
AcDbEntity
  8
0
370
     0
390
0
100
AcDbVertex
100
AcDb2dVertex
 10
518.214478
 20
210.458633
 30
0.0
  0
VERTEX
  5
3A8
100
AcDbEntity
  8
0
370
     0
390
0
100
AcDbVertex
100
AcDb2dVertex
 10
518.703674
 20
210.549408
 30
0.0
  0
VERTEX
  5
3A9
100
AcDbEntity
  8
0
370
     0
390
0
100
AcDbVertex
100
AcDb2dVertex
 10
519.076904
 20
210.786438
 30
0.0
  0
VERTEX
  5
3AA
100
AcDbEntity
  8
0
370
     0
390
0
100
AcDbVertex
100
AcDb2dVertex
 10
519.31897
 20
211.159637
 30
0.0
  0
VERTEX
  5
3AB
100
AcDbEntity
  8
0
370
     0
390
0
100
AcDbVertex
100
AcDb2dVertex
 10
519.404663
 20
211.633698
 30
0.0
  0
VERTEX
  5
3AC
100
AcDbEntity
  8
0
370
     0
390
0
100
AcDbVertex
100
AcDb2dVertex
 10
519.31897
 20
212.112808
 30
0.0
  0
VERTEX
  5
3AD
100
AcDbEntity
  8
0
370
     0
390
0
100
AcDbVertex
100
AcDb2dVertex
 10
519.086914
 20
212.480957
 30
0.0
  0
VERTEX
  5
3AE
100
AcDbEntity
  8
0
370
     0
390
0
100
AcDbVertex
100
AcDb2dVertex
 10
518.728882
 20
212.712952
 30
0.0
  0
VERTEX
  5
3AF
100
AcDbEntity
  8
0
370
     0
390
0
100
AcDbVertex
100
AcDb2dVertex
 10
518.285034
 20
212.79364
 30
0.0
  0
VERTEX
  5
3B0
100
AcDbEntity
  8
0
370
     0
390
0
100
AcDbVertex
100
AcDb2dVertex
 10
517.805969
 20
212.69278
 30
0.0
  0
VERTEX
  5
3B1
100
AcDbEntity
  8
0
370
     0
390
0
100
AcDbVertex
100
AcDb2dVertex
 10
517.447876
 20
212.405319
 30
0.0
  0
VERTEX
  5
3B2
100
AcDbEntity
  8
0
370
     0
390
0
100
AcDbVertex
100
AcDb2dVertex
 10
517.52356
 20
212.960068
 30
0.0
  0
VERTEX
  5
3B3
100
AcDbEntity
  8
0
370
     0
390
0
100
AcDbVertex
100
AcDb2dVertex
 10
517.684937
 20
213.35849
 30
0.0
  0
VERTEX
  5
3B4
100
AcDbEntity
  8
0
370
     0
390
0
100
AcDbVertex
100
AcDb2dVertex
 10
517.932007
 20
213.59552
 30
0.0
  0
VERTEX
  5
3B5
100
AcDbEntity
  8
0
370
     0
390
0
100
AcDbVertex
100
AcDb2dVertex
 10
518.275024
 20
213.676208
 30
0.0
  0
VERTEX
  5
3B6
100
AcDbEntity
  8
0
370
     0
390
0
100
AcDbVertex
100
AcDb2dVertex
 10
518.527161
 20
213.635864
 30
0.0
  0
VERTEX
  5
3B7
100
AcDbEntity
  8
0
370
     0
390
0
100
AcDbVertex
100
AcDb2dVertex
 10
518.71875
 20
213.529953
 30
0.0
  0
VERTEX
  5
3B8
100
AcDbEntity
  8
0
370
     0
390
0
100
AcDbVertex
100
AcDb2dVertex
 10
518.844849
 20
213.353439
 30
0.0
  0
VERTEX
  5
3B9
100
AcDbEntity
  8
0
370
     0
390
0
100
AcDbVertex
100
AcDb2dVertex
 10
518.9104
 20
213.116409
 30
0.0
  0
SEQEND
  5
3BA
100
AcDbEntity
  8
0
370
     0
390
0
  0
POLYLINE
  5
3BB
100
AcDbEntity
  8
0
370
    13
390
0
 62
    94
100
AcDb2dPolyline
 66
     1
 10
0.0
 20
0.0
 30
0.0
 70
     1
 71
    16
  0
VERTEX
  5
3BC
100
AcDbEntity
  8
0
370
     0
390
0
100
AcDbVertex
100
AcDb2dVertex
 10
518.915466
 20
211.628662
 30
0.0
  0
VERTEX
  5
3BD
100
AcDbEntity
  8
0
370
     0
390
0
100
AcDbVertex
100
AcDb2dVertex
 10
518.859985
 20
211.310944
 30
0.0
  0
VERTEX
  5
3BE
100
AcDbEntity
  8
0
370
     0
390
0
100
AcDbVertex
100
AcDb2dVertex
 10
518.71875
 20
211.068863
 30
0.0
  0
VERTEX
  5
3BF
100
AcDbEntity
  8
0
370
     0
390
0
100
AcDbVertex
100
AcDb2dVertex
 10
518.491821
 20
210.907471
 30
0.0
  0
VERTEX
  5
3C0
100
AcDbEntity
  8
0
370
     0
390
0
100
AcDbVertex
100
AcDb2dVertex
 10
518.209473
 20
210.85704
 30
0.0
  0
VERTEX
  5
3C1
100
AcDbEntity
  8
0
370
     0
390
0
100
AcDbVertex
100
AcDb2dVertex
 10
517.911865
 20
210.907471
 30
0.0
  0
VERTEX
  5
3C2
100
AcDbEntity
  8
0
370
     0
390
0
100
AcDbVertex
100
AcDb2dVertex
 10
517.684937
 20
211.063812
 30
0.0
  0
VERTEX
  5
3C3
100
AcDbEntity
  8
0
370
     0
390
0
100
AcDbVertex
100
AcDb2dVertex
 10
517.538696
 20
211.305893
 30
0.0
  0
VERTEX
  5
3C4
100
AcDbEntity
  8
0
370
     0
390
0
100
AcDbVertex
100
AcDb2dVertex
 10
517.493286
 20
211.623611
 30
0.0
  0
VERTEX
  5
3C5
100
AcDbEntity
  8
0
370
     0
390
0
100
AcDbVertex
100
AcDb2dVertex
 10
517.543701
 20
211.936295
 30
0.0
  0
VERTEX
  5
3C6
100
AcDbEntity
  8
0
370
     0
390
0
100
AcDbVertex
100
AcDb2dVertex
 10
517.684937
 20
212.173325
 30
0.0
  0
VERTEX
  5
3C7
100
AcDbEntity
  8
0
370
     0
390
0
100
AcDbVertex
100
AcDb2dVertex
 10
517.916931
 20
212.324615
 30
0.0
  0
VERTEX
  5
3C8
100
AcDbEntity
  8
0
370
     0
390
0
100
AcDbVertex
100
AcDb2dVertex
 10
518.229614
 20
212.380096
 30
0.0
  0
VERTEX
  5
3C9
100
AcDbEntity
  8
0
370
     0
390
0
100
AcDbVertex
100
AcDb2dVertex
 10
518.501953
 20
212.324615
 30
0.0
  0
VERTEX
  5
3CA
100
AcDbEntity
  8
0
370
     0
390
0
100
AcDbVertex
100
AcDb2dVertex
 10
518.71875
 20
212.178375
 30
0.0
  0
VERTEX
  5
3CB
100
AcDbEntity
  8
0
370
     0
390
0
100
AcDbVertex
100
AcDb2dVertex
 10
518.859985
 20
211.941345
 30
0.0
  0
SEQEND
  5
3CC
100
AcDbEntity
  8
0
370
     0
390
0
  0
LINE
  5
3CD
100
AcDbEntity
  8
0
370
    13
390
0
 62
    94
100
AcDbLine
 10
449.878906
 20
176.319214
 30
0.0
 11
449.878906
 21
210.559494
 31
0.0
210
0.0
220
0.0
230
1.0
  0
LINE
  5
3CE
100
AcDbEntity
  8
0
370
    13
390
0
 62
    94
 48
0.389132
100
AcDbLine
 10
571.505066
 20
194.994217
 30
0.0
 11
571.505066
 21
210.559494
 31
0.0
210
0.0
220
0.0
230
1.0
  0
POLYLINE
  5
3CF
100
AcDbEntity
  8
0
370
    13
390
0
 62
     7
100
AcDb2dPolyline
 66
     1
 10
0.0
 20
0.0
 30
0.0
 71
     3
  0
VERTEX
  5
3D0
100
AcDbEntity
  8
0
370
     0
390
0
100
AcDbVertex
100
AcDb2dVertex
 10
451.81073
 20
209.077133
 30
0.0
  0
VERTEX
  5
3D1
100
AcDbEntity
  8
0
370
     0
390
0
100
AcDbVertex
100
AcDb2dVertex
 10
449.878906
 20
208.559494
 30
0.0
  0
VERTEX
  5
3D2
100
AcDbEntity
  8
0
370
     0
390
0
100
AcDbVertex
100
AcDb2dVertex
 10
451.81073
 20
208.041855
 30
0.0
  0
SEQEND
  5
3D3
100
AcDbEntity
  8
0
370
     0
390
0
  0
POLYLINE
  5
3D4
100
AcDbEntity
  8
0
370
    13
390
0
 62
     7
100
AcDb2dPolyline
 66
     1
 10
0.0
 20
0.0
 30
0.0
 71
     3
  0
VERTEX
  5
3D5
100
AcDbEntity
  8
0
370
     0
390
0
100
AcDbVertex
100
AcDb2dVertex
 10
569.573242
 20
208.041855
 30
0.0
  0
VERTEX
  5
3D6
100
AcDbEntity
  8
0
370
     0
390
0
100
AcDbVertex
100
AcDb2dVertex
 10
571.505066
 20
208.559494
 30
0.0
  0
VERTEX
  5
3D7
100
AcDbEntity
  8
0
370
     0
390
0
100
AcDbVertex
100
AcDb2dVertex
 10
569.573242
 20
209.077133
 30
0.0
  0
SEQEND
  5
3D8
100
AcDbEntity
  8
0
370
     0
390
0
  0
LINE
  5
3D9
100
AcDbEntity
  8
0
370
    13
390
0
 62
    94
100
AcDbLine
 10
449.878906
 20
208.559494
 30
0.0
 11
571.505066
 21
208.559494
 31
0.0
210
0.0
220
0.0
230
1.0
  0
LINE
  5
3DA
100
AcDbEntity
  8
0
370
    13
390
0
  6
DASHDOT
 62
     7
 48
0.13
100
AcDbLine
 10
115.254456
 20
185.394211
 30
0.0
 11
110.054443
 21
185.394211
 31
0.0
210
0.0
220
0.0
230
1.0
  0
LINE
  5
3DB
100
AcDbEntity
  8
0
370
    13
390
0
  6
DASHDOT
 62
     7
 48
0.13
100
AcDbLine
 10
112.65448
 20
187.994217
 30
0.0
 11
112.65448
 21
182.794205
 31
0.0
210
0.0
220
0.0
230
1.0
  0
ARC
  5
3DC
100
AcDbEntity
  8
0
370
    13
390
0
 62
     7
100
AcDbCircle
 10
112.65448
 20
185.394211
 30
0.0
 40
1.621
210
0.0
220
0.0
230
1.0
100
AcDbArc
 50
169.999993
 51
100.000014
  0
LINE
  5
3DD
100
AcDbEntity
  8
0
370
    13
390
0
  6
DASHDOT
 62
     7
 48
0.129999
100
AcDbLine
 10
569.578857
 20
185.394211
 30
0.0
 11
564.378906
 21
185.394211
 31
0.0
210
0.0
220
0.0
230
1.0
  0
LINE
  5
3DE
100
AcDbEntity
  8
0
370
    13
390
0
  6
DASHDOT
 62
     7
 48
0.13
100
AcDbLine
 10
566.978882
 20
187.994217
 30
0.0
 11
566.978882
 21
182.794205
 31
0.0
210
0.0
220
0.0
230
1.0
  0
ARC
  5
3DF
100
AcDbEntity
  8
0
370
    13
390
0
 62
     7
100
AcDbCircle
 10
566.978882
 20
185.394211
 30
0.0
 40
1.621
210
0.0
220
0.0
230
1.0
100
AcDbArc
 50
169.999993
 51
100.000014
  0
LINE
  5
3E0
100
AcDbEntity
  8
0
370
    13
390
0
  6
DASHDOT
 62
     7
 48
0.137865
100
AcDbLine
 10
115.411743
 20
165.394211
 30
0.0
 11
109.897156
 21
165.394211
 31
0.0
210
0.0
220
0.0
230
1.0
  0
LINE
  5
3E1
100
AcDbEntity
  8
0
370
    13
390
0
  6
DASHDOT
 62
     7
 48
0.137865
100
AcDbLine
 10
112.65448
 20
168.151505
 30
0.0
 11
112.65448
 21
162.636917
 31
0.0
210
0.0
220
0.0
230
1.0
  0
LINE
  5
3E2
100
AcDbEntity
  8
0
370
    13
390
0
  6
DASHDOT
 62
     7
 48
0.137866
100
AcDbLine
 10
569.736206
 20
165.394211
 30
0.0
 11
564.221558
 21
165.394211
 31
0.0
210
0.0
220
0.0
230
1.0
  0
LINE
  5
3E3
100
AcDbEntity
  8
0
370
    13
390
0
  6
DASHDOT
 62
     7
 48
0.137865
100
AcDbLine
 10
566.978882
 20
168.151505
 30
0.0
 11
566.978882
 21
162.636917
 31
0.0
210
0.0
220
0.0
230
1.0
  0
LINE
  5
3E4
100
AcDbEntity
  8
0
370
    13
390
0
  6
DASHDOT
 62
     7
 48
0.43875
100
AcDbLine
 10
508.6539
 20
170.594208
 30
0.0
 11
491.103882
 21
170.594208
 31
0.0
210
0.0
220
0.0
230
1.0
  0
LINE
  5
3E5
100
AcDbEntity
  8
0
370
    13
390
0
  6
DASHDOT
 62
     7
 48
0.43875
100
AcDbLine
 10
499.878906
 20
179.369217
 30
0.0
 11
499.878906
 21
161.819214
 31
0.0
210
0.0
220
0.0
230
1.0
  0
LINE
  5
3E6
100
AcDbEntity
  8
0
370
    13
390
0
  6
DASHDOT
 62
     7
 48
0.146249
100
AcDbLine
 10
232.803894
 20
171.394211
 30
0.0
 11
226.953918
 21
171.394211
 31
0.0
210
0.0
220
0.0
230
1.0
  0
LINE
  5
3E7
100
AcDbEntity
  8
0
370
    13
390
0
  6
DASHDOT
 62
     7
 48
0.14625
100
AcDbLine
 10
229.878906
 20
174.319214
 30
0.0
 11
229.878906
 21
168.469208
 31
0.0
210
0.0
220
0.0
230
1.0
  0
LINE
  5
3E8
100
AcDbEntity
  8
0
370
    13
390
0
  6
DASHDOT
 62
     7
 48
0.14625
100
AcDbLine
 10
452.803894
 20
171.394211
 30
0.0
 11
446.953888
 21
171.394211
 31
0.0
210
0.0
220
0.0
230
1.0
  0
LINE
  5
3E9
100
AcDbEntity
  8
0
370
    13
390
0
  6
DASHDOT
 62
     7
 48
0.14625
100
AcDbLine
 10
449.878906
 20
174.319214
 30
0.0
 11
449.878906
 21
168.469208
 31
0.0
210
0.0
220
0.0
230
1.0
  0
LINE
  5
3EA
100
AcDbEntity
  8
0
370
    35
390
0
 62
     7
 48
0.005497
100
AcDbLine
 10
109.89801
 20
193.414215
 30
0.0
 11
109.89801
 21
193.194351
 31
0.0
210
0.0
220
0.0
230
1.0
  0
LINE
  5
3EB
100
AcDbEntity
  8
0
370
    35
390
0
 62
     7
 48
0.005497
100
AcDbLine
 10
569.89801
 20
193.194336
 30
0.0
 11
569.89801
 21
193.414215
 31
0.0
210
0.0
220
0.0
230
1.0
  0
LINE
  5
3EC
100
AcDbEntity
  8
0
370
    35
390
0
 62
     7
 48
0.004272
100
AcDbLine
 10
109.89801
 20
157.593872
 30
0.0
 11
109.89801
 21
157.423004
 31
0.0
210
0.0
220
0.0
230
1.0
  0
LINE
  5
3ED
100
AcDbEntity
  8
0
370
    35
390
0
 62
     7
 48
0.190231
100
AcDbLine
 10
503.683502
 20
165.018616
 30
0.0
 11
496.07428
 21
165.018616
 31
0.0
210
0.0
220
0.0
230
1.0
  0
LINE
  5
3EE
100
AcDbEntity
  8
0
370
    35
390
0
 62
     7
 48
0.200781
100
AcDbLine
 10
503.894531
 20
165.16861
 30
0.0
 11
495.863281
 21
165.16861
 31
0.0
210
0.0
220
0.0
230
1.0
  0
ARC
  5
3EF
100
AcDbEntity
  8
0
370
    35
390
0
 62
     7
100
AcDbCircle
 10
446.89801
 20
170.41861
 30
0.0
 40
1.375
210
0.0
220
0.0
230
1.0
100
AcDbArc
 50
338.728662
 51
57.516661
  0
LINE
  5
3F0
100
AcDbEntity
  8
0
370
    35
390
0
 62
     7
 48
0.004272
100
AcDbLine
 10
569.89801
 20
157.593872
 30
0.0
 11
569.89801
 21
157.423004
 31
0.0
210
0.0
220
0.0
230
1.0
  0
LINE
  5
3F1
100
AcDbEntity
  8
0
370
    35
390
0
 62
     7
100
AcDbLine
 10
109.89801
 20
193.414215
 30
0.0
 11
569.89801
 21
193.414215
 31
0.0
210
0.0
220
0.0
230
1.0
  0
LINE
  5
3F2
100
AcDbEntity
  8
0
370
    35
390
0
 62
     7
100
AcDbLine
 10
569.89801
 20
157.423004
 30
0.0
 11
109.89801
 21
157.423004
 31
0.0
210
0.0
220
0.0
230
1.0
  0
LINE
  5
3F3
100
AcDbEntity
  8
0
370
    13
390
0
 62
     7
 48
0.002853
100
AcDbLine
 10
109.764771
 20
157.673004
 30
0.0
 11
109.878906
 21
157.673004
 31
0.0
210
0.0
220
0.0
230
1.0
  0
LINE
  5
3F4
100
AcDbEntity
  8
0
370
    13
390
0
 62
     7
 48
0.002853
100
AcDbLine
 10
109.764771
 20
193.164215
 30
0.0
 11
109.878906
 21
193.164215
 31
0.0
210
0.0
220
0.0
230
1.0
  0
LINE
  5
3F5
100
AcDbEntity
  8
0
370
    13
390
0
 62
     7
 48
0.004272
100
AcDbLine
 10
109.678894
 20
157.593872
 30
0.0
 11
109.678894
 21
157.423004
 31
0.0
210
0.0
220
0.0
230
1.0
  0
LINE
  5
3F6
100
AcDbEntity
  8
0
370
    35
390
0
 62
     7
 48
0.000497
100
AcDbLine
 10
109.878906
 20
193.214203
 30
0.0
 11
109.878906
 21
193.194336
 31
0.0
210
0.0
220
0.0
230
1.0
  0
LINE
  5
3F7
100
AcDbEntity
  8
0
370
    13
390
0
 62
     7
 48
0.005497
100
AcDbLine
 10
109.678894
 20
193.414215
 30
0.0
 11
109.678894
 21
193.194336
 31
0.0
210
0.0
220
0.0
230
1.0
  0
LINE
  5
3F8
100
AcDbEntity
  8
0
370
    13
390
0
 62
     7
 48
0.004272
100
AcDbLine
 10
108.578918
 20
157.593872
 30
0.0
 11
108.578918
 21
157.423004
 31
0.0
210
0.0
220
0.0
230
1.0
  0
LINE
  5
3F9
100
AcDbEntity
  8
0
370
    13
390
0
 62
     7
 48
0.005497
100
AcDbLine
 10
108.578918
 20
193.414215
 30
0.0
 11
108.578918
 21
193.194351
 31
0.0
210
0.0
220
0.0
230
1.0
  0
LINE
  5
3FA
100
AcDbEntity
  8
0
370
    35
390
0
 62
     7
 48
0.000497
100
AcDbLine
 10
108.378906
 20
193.214203
 30
0.0
 11
108.378906
 21
193.194336
 31
0.0
210
0.0
220
0.0
230
1.0
  0
ARC
  5
3FB
100
AcDbEntity
  8
0
370
    35
390
0
 62
     7
100
AcDbCircle
 10
109.678894
 20
157.623016
 30
0.0
 40
0.2
210
0.0
220
0.0
230
1.0
100
AcDbArc
 50
269.999997
 51
0.0
  0
ARC
  5
3FC
100
AcDbEntity
  8
0
370
    35
390
0
 62
     7
100
AcDbCircle
 10
109.678894
 20
193.214203
 30
0.0
 40
0.2
210
0.0
220
0.0
230
1.0
100
AcDbArc
 50
360.0
 51
90.000003
  0
LINE
  5
3FD
100
AcDbEntity
  8
0
370
    35
390
0
 62
     7
 48
0.027499
100
AcDbLine
 10
109.678894
 20
157.423004
 30
0.0
 11
108.578918
 21
157.423004
 31
0.0
210
0.0
220
0.0
230
1.0
  0
LINE
  5
3FE
100
AcDbEntity
  8
0
370
    35
390
0
 62
     7
 48
0.027499
100
AcDbLine
 10
109.678894
 20
193.414215
 30
0.0
 11
108.578918
 21
193.414215
 31
0.0
210
0.0
220
0.0
230
1.0
  0
ARC
  5
3FF
100
AcDbEntity
  8
0
370
    35
390
0
 62
     7
100
AcDbCircle
 10
108.578918
 20
157.623016
 30
0.0
 40
0.2
210
0.0
220
0.0
230
1.0
100
AcDbArc
 50
188.27395
 51
269.997866
  0
ARC
  5
400
100
AcDbEntity
  8
0
370
    35
390
0
 62
     7
100
AcDbCircle
 10
108.578918
 20
193.214203
 30
0.0
 40
0.2
210
0.0
220
0.0
230
1.0
100
AcDbArc
 50
90.000003
 51
179.999995
  0
LINE
  5
401
100
AcDbEntity
  8
0
370
    35
390
0
 62
     7
 48
0.000478
100
AcDbLine
 10
109.878906
 20
193.214203
 30
0.0
 11
109.89801
 21
193.214203
 31
0.0
210
0.0
220
0.0
230
1.0
  0
LINE
  5
402
100
AcDbEntity
  8
0
370
    35
390
0
 62
     7
 48
0.000549
100
AcDbLine
 10
109.878906
 20
193.192261
 30
0.0
 11
109.878906
 21
193.214203
 31
0.0
210
0.0
220
0.0
230
1.0
  0
LINE
  5
403
100
AcDbEntity
  8
0
370
    13
390
0
 62
     7
 48
0.005497
100
AcDbLine
 10
570.098022
 20
193.194351
 30
0.0
 11
570.098022
 21
193.414215
 31
0.0
210
0.0
220
0.0
230
1.0
  0
LINE
  5
404
100
AcDbEntity
  8
0
370
    13
390
0
 62
     7
 48
0.004272
100
AcDbLine
 10
570.098022
 20
157.423004
 30
0.0
 11
570.098022
 21
157.593872
 31
0.0
210
0.0
220
0.0
230
1.0
  0
LINE
  5
405
100
AcDbEntity
  8
0
370
    13
390
0
 62
     7
 48
0.005497
100
AcDbLine
 10
571.197998
 20
193.194351
 30
0.0
 11
571.197998
 21
193.414215
 31
0.0
210
0.0
220
0.0
230
1.0
  0
LINE
  5
406
100
AcDbEntity
  8
0
370
    13
390
0
 62
     7
 48
0.004272
100
AcDbLine
 10
571.197998
 20
157.423004
 30
0.0
 11
571.197998
 21
157.593872
 31
0.0
210
0.0
220
0.0
230
1.0
  0
LINE
  5
407
100
AcDbEntity
  8
0
370
    35
390
0
 62
     7
 48
0.000497
100
AcDbLine
 10
571.39801
 20
193.194336
 30
0.0
 11
571.39801
 21
193.214203
 31
0.0
210
0.0
220
0.0
230
1.0
  0
ARC
  5
408
100
AcDbEntity
  8
0
370
    35
390
0
 62
     7
100
AcDbCircle
 10
570.098022
 20
193.214203
 30
0.0
 40
0.2
210
0.0
220
0.0
230
1.0
100
AcDbArc
 50
90.000003
 51
179.999995
  0
ARC
  5
409
100
AcDbEntity
  8
0
370
    35
390
0
 62
     7
100
AcDbCircle
 10
570.098022
 20
157.623016
 30
0.0
 40
0.2
210
0.0
220
0.0
230
1.0
100
AcDbArc
 50
188.276354
 51
269.997866
  0
LINE
  5
40A
100
AcDbEntity
  8
0
370
    35
390
0
 62
     7
 48
0.027499
100
AcDbLine
 10
570.098022
 20
193.414215
 30
0.0
 11
571.197998
 21
193.414215
 31
0.0
210
0.0
220
0.0
230
1.0
  0
LINE
  5
40B
100
AcDbEntity
  8
0
370
    35
390
0
 62
     7
 48
0.027499
100
AcDbLine
 10
570.098022
 20
157.423004
 30
0.0
 11
571.197998
 21
157.423004
 31
0.0
210
0.0
220
0.0
230
1.0
  0
ARC
  5
40C
100
AcDbEntity
  8
0
370
    35
390
0
 62
     7
100
AcDbCircle
 10
571.197998
 20
193.214203
 30
0.0
 40
0.2
210
0.0
220
0.0
230
1.0
100
AcDbArc
 50
360.0
 51
90.000003
  0
ARC
  5
40D
100
AcDbEntity
  8
0
370
    35
390
0
 62
     7
100
AcDbCircle
 10
571.197998
 20
157.623016
 30
0.0
 40
0.2
210
0.0
220
0.0
230
1.0
100
AcDbArc
 50
270.002129
 51
351.726045
  0
LINE
  5
40E
100
AcDbEntity
  8
0
370
    35
390
0
 62
     7
 48
0.028867
100
AcDbLine
 10
112.65448
 20
184.239517
 30
0.0
 11
113.65448
 21
184.816864
 31
0.0
210
0.0
220
0.0
230
1.0
  0
LINE
  5
40F
100
AcDbEntity
  8
0
370
    35
390
0
 62
     7
 48
0.028867
100
AcDbLine
 10
113.65448
 20
184.816864
 30
0.0
 11
113.65448
 21
185.971558
 31
0.0
210
0.0
220
0.0
230
1.0
  0
LINE
  5
410
100
AcDbEntity
  8
0
370
    35
390
0
 62
     7
 48
0.028868
100
AcDbLine
 10
113.65448
 20
185.971558
 30
0.0
 11
112.65448
 21
186.54892
 31
0.0
210
0.0
220
0.0
230
1.0
  0
LINE
  5
411
100
AcDbEntity
  8
0
370
    35
390
0
 62
     7
 48
0.028868
100
AcDbLine
 10
112.65448
 20
186.54892
 30
0.0
 11
111.65448
 21
185.971558
 31
0.0
210
0.0
220
0.0
230
1.0
  0
LINE
  5
412
100
AcDbEntity
  8
0
370
    35
390
0
 62
     7
 48
0.028867
100
AcDbLine
 10
111.65448
 20
185.971558
 30
0.0
 11
111.65448
 21
184.816864
 31
0.0
210
0.0
220
0.0
230
1.0
  0
LINE
  5
413
100
AcDbEntity
  8
0
370
    35
390
0
 62
     7
 48
0.028867
100
AcDbLine
 10
111.65448
 20
184.816864
 30
0.0
 11
112.65448
 21
184.239517
 31
0.0
210
0.0
220
0.0
230
1.0
  0
CIRCLE
  5
414
100
AcDbEntity
  8
0
370
    35
390
0
 62
     7
100
AcDbCircle
 10
112.65448
 20
185.394211
 30
0.0
 40
2.0
210
0.0
220
0.0
230
1.0
  0
LINE
  5
415
100
AcDbEntity
  8
0
370
    35
390
0
 62
     7
 48
0.028867
100
AcDbLine
 10
566.978882
 20
164.239517
 30
0.0
 11
567.978882
 21
164.816864
 31
0.0
210
0.0
220
0.0
230
1.0
  0
LINE
  5
416
100
AcDbEntity
  8
0
370
    35
390
0
 62
     7
 48
0.028867
100
AcDbLine
 10
567.978882
 20
164.816864
 30
0.0
 11
567.978882
 21
165.971558
 31
0.0
210
0.0
220
0.0
230
1.0
  0
LINE
  5
417
100
AcDbEntity
  8
0
370
    35
390
0
 62
     7
 48
0.028868
100
AcDbLine
 10
567.978882
 20
165.971558
 30
0.0
 11
566.978882
 21
166.54892
 31
0.0
210
0.0
220
0.0
230
1.0
  0
LINE
  5
418
100
AcDbEntity
  8
0
370
    35
390
0
 62
     7
 48
0.028868
100
AcDbLine
 10
566.978882
 20
166.54892
 30
0.0
 11
565.978882
 21
165.971558
 31
0.0
210
0.0
220
0.0
230
1.0
  0
LINE
  5
419
100
AcDbEntity
  8
0
370
    35
390
0
 62
     7
 48
0.028867
100
AcDbLine
 10
565.978882
 20
165.971558
 30
0.0
 11
565.978882
 21
164.816864
 31
0.0
210
0.0
220
0.0
230
1.0
  0
LINE
  5
41A
100
AcDbEntity
  8
0
370
    35
390
0
 62
     7
 48
0.028867
100
AcDbLine
 10
565.978882
 20
164.816864
 30
0.0
 11
566.978882
 21
164.239517
 31
0.0
210
0.0
220
0.0
230
1.0
  0
LINE
  5
41B
100
AcDbEntity
  8
0
370
    35
390
0
 62
     7
 48
0.028867
100
AcDbLine
 10
566.978882
 20
184.239517
 30
0.0
 11
567.978882
 21
184.816864
 31
0.0
210
0.0
220
0.0
230
1.0
  0
LINE
  5
41C
100
AcDbEntity
  8
0
370
    35
390
0
 62
     7
 48
0.028867
100
AcDbLine
 10
567.978882
 20
184.816864
 30
0.0
 11
567.978882
 21
185.971558
 31
0.0
210
0.0
220
0.0
230
1.0
  0
LINE
  5
41D
100
AcDbEntity
  8
0
370
    35
390
0
 62
     7
 48
0.028868
100
AcDbLine
 10
567.978882
 20
185.971558
 30
0.0
 11
566.978882
 21
186.54892
 31
0.0
210
0.0
220
0.0
230
1.0
  0
LINE
  5
41E
100
AcDbEntity
  8
0
370
    35
390
0
 62
     7
 48
0.028868
100
AcDbLine
 10
566.978882
 20
186.54892
 30
0.0
 11
565.978882
 21
185.971558
 31
0.0
210
0.0
220
0.0
230
1.0
  0
LINE
  5
41F
100
AcDbEntity
  8
0
370
    35
390
0
 62
     7
 48
0.028867
100
AcDbLine
 10
565.978882
 20
185.971558
 30
0.0
 11
565.978882
 21
184.816864
 31
0.0
210
0.0
220
0.0
230
1.0
  0
LINE
  5
420
100
AcDbEntity
  8
0
370
    35
390
0
 62
     7
 48
0.028867
100
AcDbLine
 10
565.978882
 20
184.816864
 30
0.0
 11
566.978882
 21
184.239517
 31
0.0
210
0.0
220
0.0
230
1.0
  0
CIRCLE
  5
421
100
AcDbEntity
  8
0
370
    35
390
0
 62
     7
100
AcDbCircle
 10
566.978882
 20
185.394211
 30
0.0
 40
2.0
210
0.0
220
0.0
230
1.0
  0
LINE
  5
422
100
AcDbEntity
  8
0
370
    35
390
0
 62
     7
 48
0.028867
100
AcDbLine
 10
112.65448
 20
164.239517
 30
0.0
 11
113.65448
 21
164.816864
 31
0.0
210
0.0
220
0.0
230
1.0
  0
LINE
  5
423
100
AcDbEntity
  8
0
370
    35
390
0
 62
     7
 48
0.028867
100
AcDbLine
 10
113.65448
 20
164.816864
 30
0.0
 11
113.65448
 21
165.971558
 31
0.0
210
0.0
220
0.0
230
1.0
  0
LINE
  5
424
100
AcDbEntity
  8
0
370
    35
390
0
 62
     7
 48
0.028868
100
AcDbLine
 10
113.65448
 20
165.971558
 30
0.0
 11
112.65448
 21
166.54892
 31
0.0
210
0.0
220
0.0
230
1.0
  0
LINE
  5
425
100
AcDbEntity
  8
0
370
    35
390
0
 62
     7
 48
0.028868
100
AcDbLine
 10
112.65448
 20
166.54892
 30
0.0
 11
111.65448
 21
165.971558
 31
0.0
210
0.0
220
0.0
230
1.0
  0
LINE
  5
426
100
AcDbEntity
  8
0
370
    35
390
0
 62
     7
 48
0.028867
100
AcDbLine
 10
111.65448
 20
165.971558
 30
0.0
 11
111.65448
 21
164.816864
 31
0.0
210
0.0
220
0.0
230
1.0
  0
LINE
  5
427
100
AcDbEntity
  8
0
370
    35
390
0
 62
     7
 48
0.028867
100
AcDbLine
 10
111.65448
 20
164.816864
 30
0.0
 11
112.65448
 21
164.239517
 31
0.0
210
0.0
220
0.0
230
1.0
  0
LINE
  5
428
100
AcDbEntity
  8
0
370
    35
390
0
 62
     7
 48
0.005
100
AcDbLine
 10
108.90448
 20
192.694214
 30
0.0
 11
108.90448
 21
192.494217
 31
0.0
210
0.0
220
0.0
230
1.0
  0
LINE
  5
429
100
AcDbEntity
  8
0
370
    35
390
0
 62
     7
 48
0.005
100
AcDbLine
 10
108.90448
 20
158.094208
 30
0.0
 11
108.90448
 21
158.29422
 31
0.0
210
0.0
220
0.0
230
1.0
  0
LINE
  5
42A
100
AcDbEntity
  8
0
370
    35
390
0
 62
     7
100
AcDbLine
 10
108.90448
 20
192.494217
 30
0.0
 11
108.90448
 21
158.29422
 31
0.0
210
0.0
220
0.0
230
1.0
  0
CIRCLE
  5
42B
100
AcDbEntity
  8
0
370
    35
390
0
 62
     7
100
AcDbCircle
 10
112.65448
 20
165.394211
 30
0.0
 40
2.121
210
0.0
220
0.0
230
1.0
  0
CIRCLE
  5
42C
100
AcDbEntity
  8
0
370
    35
390
0
 62
     7
100
AcDbCircle
 10
112.65448
 20
185.394211
 30
0.0
 40
2.121
210
0.0
220
0.0
230
1.0
  0
LINE
  5
42D
100
AcDbEntity
  8
0
370
    35
390
0
 62
     7
100
AcDbLine
 10
116.65448
 20
162.853058
 30
0.0
 11
116.65448
 21
187.935364
 31
0.0
210
0.0
220
0.0
230
1.0
  0
LINE
  5
42E
100
AcDbEntity
  8
0
370
    35
390
0
 62
     7
 48
0.150772
100
AcDbLine
 10
109.623901
 20
161.782852
 30
0.0
 11
115.654541
 21
161.83548
 31
0.0
210
0.0
220
0.0
230
1.0
  0
LINE
  5
42F
100
AcDbEntity
  8
0
370
    35
390
0
 62
     7
 48
0.150772
100
AcDbLine
 10
109.623901
 20
189.005569
 30
0.0
 11
115.654541
 21
188.952942
 31
0.0
210
0.0
220
0.0
230
1.0
  0
LINE
  5
430
100
AcDbEntity
  8
0
370
    35
390
0
 62
     7
 48
0.00011
100
AcDbLine
 10
109.768799
 20
192.694214
 30
0.0
 11
109.764404
 21
192.694214
 31
0.0
210
0.0
220
0.0
230
1.0
  0
LINE
  5
431
100
AcDbEntity
  8
0
370
    35
390
0
 62
     7
 48
0.044748
100
AcDbLine
 10
109.768799
 20
192.694214
 30
0.0
 11
109.768799
 21
190.904312
 31
0.0
210
0.0
220
0.0
230
1.0
  0
LINE
  5
432
100
AcDbEntity
  8
0
370
    35
390
0
 62
     7
 48
0.044748
100
AcDbLine
 10
109.768799
 20
159.884125
 30
0.0
 11
109.768799
 21
158.094208
 31
0.0
210
0.0
220
0.0
230
1.0
  0
LINE
  5
433
100
AcDbEntity
  8
0
370
    35
390
0
 62
     7
 48
0.00011
100
AcDbLine
 10
109.768799
 20
158.094208
 30
0.0
 11
109.764404
 21
158.094208
 31
0.0
210
0.0
220
0.0
230
1.0
  0
LINE
  5
434
100
AcDbEntity
  8
0
370
    35
390
0
 62
     7
 48
0.01803
100
AcDbLine
 10
108.90448
 20
192.694214
 30
0.0
 11
109.625671
 21
192.694214
 31
0.0
210
0.0
220
0.0
230
1.0
  0
LINE
  5
435
100
AcDbEntity
  8
0
370
    35
390
0
 62
     7
 48
0.017986
100
AcDbLine
 10
108.90448
 20
192.494217
 30
0.0
 11
109.623901
 21
192.494217
 31
0.0
210
0.0
220
0.0
230
1.0
  0
LINE
  5
436
100
AcDbEntity
  8
0
370
    35
390
0
 62
     7
 48
0.005
100
AcDbLine
 10
109.625671
 20
192.694214
 30
0.0
 11
109.623901
 21
192.494217
 31
0.0
210
0.0
220
0.0
230
1.0
  0
LINE
  5
437
100
AcDbEntity
  8
0
370
    35
390
0
 62
     7
 48
0.035666
100
AcDbLine
 10
116.65448
 20
162.853058
 30
0.0
 11
115.654541
 21
161.83548
 31
0.0
210
0.0
220
0.0
230
1.0
  0
LINE
  5
438
100
AcDbEntity
  8
0
370
    35
390
0
 62
     7
 48
0.035666
100
AcDbLine
 10
116.65448
 20
187.935364
 30
0.0
 11
115.654541
 21
188.952942
 31
0.0
210
0.0
220
0.0
230
1.0
  0
LINE
  5
439
100
AcDbEntity
  8
0
370
    35
390
0
 62
     7
 48
0.087216
100
AcDbLine
 10
109.623901
 20
192.494217
 30
0.0
 11
109.623901
 21
189.005569
 31
0.0
210
0.0
220
0.0
230
1.0
  0
LINE
  5
43A
100
AcDbEntity
  8
0
370
    35
390
0
 62
     7
 48
0.017986
100
AcDbLine
 10
108.90448
 20
158.29422
 30
0.0
 11
109.623901
 21
158.29422
 31
0.0
210
0.0
220
0.0
230
1.0
  0
LINE
  5
43B
100
AcDbEntity
  8
0
370
    35
390
0
 62
     7
 48
0.087216
100
AcDbLine
 10
109.623901
 20
161.782852
 30
0.0
 11
109.623901
 21
158.29422
 31
0.0
210
0.0
220
0.0
230
1.0
  0
LINE
  5
43C
100
AcDbEntity
  8
0
370
    35
390
0
 62
     7
 48
0.000066
100
AcDbLine
 10
109.628296
 20
192.694214
 30
0.0
 11
109.625671
 21
192.694214
 31
0.0
210
0.0
220
0.0
230
1.0
  0
LINE
  5
43D
100
AcDbEntity
  8
0
370
    35
390
0
 62
     7
 48
0.005001
100
AcDbLine
 10
109.625671
 20
158.094208
 30
0.0
 11
109.623901
 21
158.29422
 31
0.0
210
0.0
220
0.0
230
1.0
  0
LINE
  5
43E
100
AcDbEntity
  8
0
370
    35
390
0
 62
     7
 48
0.01803
100
AcDbLine
 10
108.90448
 20
158.094208
 30
0.0
 11
109.625671
 21
158.094208
 31
0.0
210
0.0
220
0.0
230
1.0
  0
LINE
  5
43F
100
AcDbEntity
  8
0
370
    35
390
0
 62
     7
 48
0.000066
100
AcDbLine
 10
109.628296
 20
158.094208
 30
0.0
 11
109.625671
 21
158.094208
 31
0.0
210
0.0
220
0.0
230
1.0
  0
LINE
  5
440
100
AcDbEntity
  8
0
370
    35
390
0
 62
     7
 48
0.0375
100
AcDbLine
 10
108.130066
 20
193.194214
 30
0.0
 11
109.630066
 21
193.194214
 31
0.0
210
0.0
220
0.0
230
1.0
  0
LINE
  5
441
100
AcDbEntity
  8
0
370
    35
390
0
 62
     7
 48
0.005
100
AcDbLine
 10
108.128296
 20
192.994217
 30
0.0
 11
108.130066
 21
193.194214
 31
0.0
210
0.0
220
0.0
230
1.0
  0
LINE
  5
442
100
AcDbEntity
  8
0
370
    35
390
0
 62
     7
 48
0.0375
100
AcDbLine
 10
109.628296
 20
192.994217
 30
0.0
 11
108.128296
 21
192.994217
 31
0.0
210
0.0
220
0.0
230
1.0
  0
LINE
  5
443
100
AcDbEntity
  8
0
370
    35
390
0
 62
     7
 48
0.005
100
AcDbLine
 10
109.628296
 20
192.994217
 30
0.0
 11
109.630066
 21
193.194214
 31
0.0
210
0.0
220
0.0
230
1.0
  0
LINE
  5
444
100
AcDbEntity
  8
0
370
    35
390
0
 62
     7
100
AcDbLine
 10
108.128296
 20
192.994217
 30
0.0
 11
108.128296
 21
157.79422
 31
0.0
210
0.0
220
0.0
230
1.0
  0
LINE
  5
445
100
AcDbEntity
  8
0
370
    35
390
0
 62
     7
 48
0.0375
100
AcDbLine
 10
108.128296
 20
157.79422
 30
0.0
 11
109.628296
 21
157.79422
 31
0.0
210
0.0
220
0.0
230
1.0
  0
LINE
  5
446
100
AcDbEntity
  8
0
370
    35
390
0
 62
     7
 48
0.0075
100
AcDbLine
 10
109.628296
 20
157.79422
 30
0.0
 11
109.628296
 21
158.094208
 31
0.0
210
0.0
220
0.0
230
1.0
  0
LINE
  5
447
100
AcDbEntity
  8
0
370
    35
390
0
 62
     7
 48
0.0075
100
AcDbLine
 10
109.628296
 20
192.694214
 30
0.0
 11
109.628296
 21
192.994217
 31
0.0
210
0.0
220
0.0
230
1.0
  0
LINE
  5
448
100
AcDbEntity
  8
0
370
    35
390
0
 62
     7
 48
0.0375
100
AcDbLine
 10
109.630066
 20
157.594208
 30
0.0
 11
108.130066
 21
157.594208
 31
0.0
210
0.0
220
0.0
230
1.0
  0
LINE
  5
449
100
AcDbEntity
  8
0
370
    35
390
0
 62
     7
 48
0.005001
100
AcDbLine
 10
109.628296
 20
157.79422
 30
0.0
 11
109.630066
 21
157.594208
 31
0.0
210
0.0
220
0.0
230
1.0
  0
LINE
  5
44A
100
AcDbEntity
  8
0
370
    35
390
0
 62
     7
 48
0.005001
100
AcDbLine
 10
108.128296
 20
157.79422
 30
0.0
 11
108.130066
 21
157.594208
 31
0.0
210
0.0
220
0.0
230
1.0
  0
LINE
  5
44B
100
AcDbEntity
  8
0
370
    35
390
0
 62
     7
 48
0.0125
100
AcDbLine
 10
109.764404
 20
193.194214
 30
0.0
 11
109.764404
 21
192.694214
 31
0.0
210
0.0
220
0.0
230
1.0
  0
LINE
  5
44C
100
AcDbEntity
  8
0
370
    35
390
0
 62
     7
 48
0.0125
100
AcDbLine
 10
109.764404
 20
158.094208
 30
0.0
 11
109.764404
 21
157.594208
 31
0.0
210
0.0
220
0.0
230
1.0
  0
LINE
  5
44D
100
AcDbEntity
  8
0
370
    35
390
0
 62
     7
 48
0.003358
100
AcDbLine
 10
109.764404
 20
193.194214
 30
0.0
 11
109.630066
 21
193.194214
 31
0.0
210
0.0
220
0.0
230
1.0
  0
LINE
  5
44E
100
AcDbEntity
  8
0
370
    35
390
0
 62
     7
 48
0.003358
100
AcDbLine
 10
109.764404
 20
157.594208
 30
0.0
 11
109.630066
 21
157.594208
 31
0.0
210
0.0
220
0.0
230
1.0
  0
LINE
  5
44F
100
AcDbEntity
  8
0
370
    35
390
0
 62
     7
 48
0.0475
100
AcDbLine
 10
109.643982
 20
161.783035
 30
0.0
 11
109.643982
 21
159.883026
 31
0.0
210
0.0
220
0.0
230
1.0
  0
LINE
  5
450
100
AcDbEntity
  8
0
370
    35
390
0
 62
     7
 48
0.0475
100
AcDbLine
 10
109.643982
 20
190.905396
 30
0.0
 11
109.643982
 21
189.005386
 31
0.0
210
0.0
220
0.0
230
1.0
  0
LINE
  5
451
100
AcDbEntity
  8
0
370
    35
390
0
 62
     7
 48
0.005873
100
AcDbLine
 10
109.643982
 20
190.905396
 30
0.0
 11
109.878906
 21
190.903336
 31
0.0
210
0.0
220
0.0
230
1.0
  0
LINE
  5
452
100
AcDbEntity
  8
0
370
    35
390
0
 62
     7
 48
0.02444
100
AcDbLine
 10
115.65448
 20
188.952942
 30
0.0
 11
114.963196
 21
189.644211
 31
0.0
210
0.0
220
0.0
230
1.0
  0
LINE
  5
453
100
AcDbEntity
  8
0
370
    35
390
0
 62
     7
 48
0.005873
100
AcDbLine
 10
109.643982
 20
159.883026
 30
0.0
 11
109.878906
 21
159.885086
 31
0.0
210
0.0
220
0.0
230
1.0
  0
LINE
  5
454
100
AcDbEntity
  8
0
370
    35
390
0
 62
     7
 48
0.02444
100
AcDbLine
 10
115.65448
 20
161.83548
 30
0.0
 11
114.963196
 21
161.144211
 31
0.0
210
0.0
220
0.0
230
1.0
  0
LINE
  5
455
100
AcDbEntity
  8
0
370
    35
390
0
 62
     7
 48
0.005
100
AcDbLine
 10
570.728882
 20
158.094208
 30
0.0
 11
570.728882
 21
158.29422
 31
0.0
210
0.0
220
0.0
230
1.0
  0
LINE
  5
456
100
AcDbEntity
  8
0
370
    35
390
0
 62
     7
 48
0.005
100
AcDbLine
 10
570.728882
 20
192.694214
 30
0.0
 11
570.728882
 21
192.494217
 31
0.0
210
0.0
220
0.0
230
1.0
  0
LINE
  5
457
100
AcDbEntity
  8
0
370
    35
390
0
 62
     7
100
AcDbLine
 10
570.728882
 20
158.29422
 30
0.0
 11
570.728882
 21
192.494217
 31
0.0
210
0.0
220
0.0
230
1.0
  0
CIRCLE
  5
458
100
AcDbEntity
  8
0
370
    35
390
0
 62
     7
100
AcDbCircle
 10
566.978882
 20
185.394211
 30
0.0
 40
2.121
210
0.0
220
0.0
230
1.0
  0
CIRCLE
  5
459
100
AcDbEntity
  8
0
370
    35
390
0
 62
     7
100
AcDbCircle
 10
566.978882
 20
165.394211
 30
0.0
 40
2.121
210
0.0
220
0.0
230
1.0
  0
LINE
  5
45A
100
AcDbEntity
  8
0
370
    35
390
0
 62
     7
100
AcDbLine
 10
562.978882
 20
187.935364
 30
0.0
 11
562.978882
 21
162.853058
 31
0.0
210
0.0
220
0.0
230
1.0
  0
LINE
  5
45B
100
AcDbEntity
  8
0
370
    35
390
0
 62
     7
 48
0.150769
100
AcDbLine
 10
570.009399
 20
189.005569
 30
0.0
 11
563.978882
 21
188.952942
 31
0.0
210
0.0
220
0.0
230
1.0
  0
LINE
  5
45C
100
AcDbEntity
  8
0
370
    35
390
0
 62
     7
 48
0.150769
100
AcDbLine
 10
570.009399
 20
161.782852
 30
0.0
 11
563.978882
 21
161.83548
 31
0.0
210
0.0
220
0.0
230
1.0
  0
LINE
  5
45D
100
AcDbEntity
  8
0
370
    35
390
0
 62
     7
 48
0.01803
100
AcDbLine
 10
570.728882
 20
158.094208
 30
0.0
 11
570.00769
 21
158.094208
 31
0.0
210
0.0
220
0.0
230
1.0
  0
LINE
  5
45E
100
AcDbEntity
  8
0
370
    35
390
0
 62
     7
 48
0.017987
100
AcDbLine
 10
570.728882
 20
158.29422
 30
0.0
 11
570.009399
 21
158.29422
 31
0.0
210
0.0
220
0.0
230
1.0
  0
LINE
  5
45F
100
AcDbEntity
  8
0
370
    35
390
0
 62
     7
 48
0.005
100
AcDbLine
 10
570.00769
 20
158.094208
 30
0.0
 11
570.009399
 21
158.29422
 31
0.0
210
0.0
220
0.0
230
1.0
  0
LINE
  5
460
100
AcDbEntity
  8
0
370
    35
390
0
 62
     7
 48
0.035667
100
AcDbLine
 10
562.978882
 20
187.935364
 30
0.0
 11
563.978882
 21
188.952942
 31
0.0
210
0.0
220
0.0
230
1.0
  0
LINE
  5
461
100
AcDbEntity
  8
0
370
    35
390
0
 62
     7
 48
0.035667
100
AcDbLine
 10
562.978882
 20
162.853058
 30
0.0
 11
563.978882
 21
161.83548
 31
0.0
210
0.0
220
0.0
230
1.0
  0
LINE
  5
462
100
AcDbEntity
  8
0
370
    35
390
0
 62
     7
 48
0.087216
100
AcDbLine
 10
570.009399
 20
158.29422
 30
0.0
 11
570.009399
 21
161.782852
 31
0.0
210
0.0
220
0.0
230
1.0
  0
LINE
  5
463
100
AcDbEntity
  8
0
370
    35
390
0
 62
     7
 48
0.017987
100
AcDbLine
 10
570.728882
 20
192.494217
 30
0.0
 11
570.009399
 21
192.494217
 31
0.0
210
0.0
220
0.0
230
1.0
  0
LINE
  5
464
100
AcDbEntity
  8
0
370
    35
390
0
 62
     7
 48
0.087216
100
AcDbLine
 10
570.009399
 20
189.005569
 30
0.0
 11
570.009399
 21
192.494217
 31
0.0
210
0.0
220
0.0
230
1.0
  0
LINE
  5
465
100
AcDbEntity
  8
0
370
    35
390
0
 62
     7
 48
0.000066
100
AcDbLine
 10
570.005066
 20
158.094208
 30
0.0
 11
570.00769
 21
158.094208
 31
0.0
210
0.0
220
0.0
230
1.0
  0
LINE
  5
466
100
AcDbEntity
  8
0
370
    35
390
0
 62
     7
 48
0.005
100
AcDbLine
 10
570.00769
 20
192.694214
 30
0.0
 11
570.009399
 21
192.494217
 31
0.0
210
0.0
220
0.0
230
1.0
  0
LINE
  5
467
100
AcDbEntity
  8
0
370
    35
390
0
 62
     7
 48
0.01803
100
AcDbLine
 10
570.728882
 20
192.694214
 30
0.0
 11
570.00769
 21
192.694214
 31
0.0
210
0.0
220
0.0
230
1.0
  0
LINE
  5
468
100
AcDbEntity
  8
0
370
    35
390
0
 62
     7
 48
0.000066
100
AcDbLine
 10
570.005066
 20
192.694214
 30
0.0
 11
570.00769
 21
192.694214
 31
0.0
210
0.0
220
0.0
230
1.0
  0
LINE
  5
469
100
AcDbEntity
  8
0
370
    35
390
0
 62
     7
 48
0.0375
100
AcDbLine
 10
571.503296
 20
157.594208
 30
0.0
 11
570.003296
 21
157.594208
 31
0.0
210
0.0
220
0.0
230
1.0
  0
LINE
  5
46A
100
AcDbEntity
  8
0
370
    35
390
0
 62
     7
 48
0.005001
100
AcDbLine
 10
571.505066
 20
157.79422
 30
0.0
 11
571.503296
 21
157.594208
 31
0.0
210
0.0
220
0.0
230
1.0
  0
LINE
  5
46B
100
AcDbEntity
  8
0
370
    35
390
0
 62
     7
 48
0.0375
100
AcDbLine
 10
570.005066
 20
157.79422
 30
0.0
 11
571.505066
 21
157.79422
 31
0.0
210
0.0
220
0.0
230
1.0
  0
LINE
  5
46C
100
AcDbEntity
  8
0
370
    35
390
0
 62
     7
 48
0.005001
100
AcDbLine
 10
570.005066
 20
157.79422
 30
0.0
 11
570.003296
 21
157.594208
 31
0.0
210
0.0
220
0.0
230
1.0
  0
LINE
  5
46D
100
AcDbEntity
  8
0
370
    35
390
0
 62
     7
100
AcDbLine
 10
571.505066
 20
157.79422
 30
0.0
 11
571.505066
 21
192.994217
 31
0.0
210
0.0
220
0.0
230
1.0
  0
LINE
  5
46E
100
AcDbEntity
  8
0
370
    35
390
0
 62
     7
 48
0.0375
100
AcDbLine
 10
571.505066
 20
192.994217
 30
0.0
 11
570.005066
 21
192.994217
 31
0.0
210
0.0
220
0.0
230
1.0
  0
LINE
  5
46F
100
AcDbEntity
  8
0
370
    35
390
0
 62
     7
 48
0.0075
100
AcDbLine
 10
570.005066
 20
192.994217
 30
0.0
 11
570.005066
 21
192.694214
 31
0.0
210
0.0
220
0.0
230
1.0
  0
LINE
  5
470
100
AcDbEntity
  8
0
370
    35
390
0
 62
     7
 48
0.0075
100
AcDbLine
 10
570.005066
 20
158.094208
 30
0.0
 11
570.005066
 21
157.79422
 31
0.0
210
0.0
220
0.0
230
1.0
  0
LINE
  5
471
100
AcDbEntity
  8
0
370
    35
390
0
 62
     7
 48
0.0375
100
AcDbLine
 10
570.003296
 20
193.194214
 30
0.0
 11
571.503296
 21
193.194214
 31
0.0
210
0.0
220
0.0
230
1.0
  0
LINE
  5
472
100
AcDbEntity
  8
0
370
    35
390
0
 62
     7
 48
0.005
100
AcDbLine
 10
570.005066
 20
192.994217
 30
0.0
 11
570.003296
 21
193.194214
 31
0.0
210
0.0
220
0.0
230
1.0
  0
LINE
  5
473
100
AcDbEntity
  8
0
370
    35
390
0
 62
     7
 48
0.005
100
AcDbLine
 10
571.505066
 20
192.994217
 30
0.0
 11
571.503296
 21
193.194214
 31
0.0
210
0.0
220
0.0
230
1.0
  0
LINE
  5
474
100
AcDbEntity
  8
0
370
    35
390
0
 62
     7
 48
0.00336
100
AcDbLine
 10
569.868896
 20
157.594208
 30
0.0
 11
570.003296
 21
157.594208
 31
0.0
210
0.0
220
0.0
230
1.0
  0
LINE
  5
475
100
AcDbEntity
  8
0
370
    35
390
0
 62
     7
 48
0.00311
100
AcDbLine
 10
569.878906
 20
193.194214
 30
0.0
 11
570.003296
 21
193.194214
 31
0.0
210
0.0
220
0.0
230
1.0
  0
LINE
  5
476
100
AcDbEntity
  8
0
370
    35
390
0
 62
     7
 48
0.0475
100
AcDbLine
 10
569.98938
 20
189.005386
 30
0.0
 11
569.98938
 21
190.905396
 31
0.0
210
0.0
220
0.0
230
1.0
  0
LINE
  5
477
100
AcDbEntity
  8
0
370
    35
390
0
 62
     7
 48
0.0475
100
AcDbLine
 10
569.98938
 20
159.883026
 30
0.0
 11
569.98938
 21
161.783035
 31
0.0
210
0.0
220
0.0
230
1.0
  0
LINE
  5
478
100
AcDbEntity
  8
0
370
    35
390
0
 62
     7
 48
0.002762
100
AcDbLine
 10
569.98938
 20
159.883026
 30
0.0
 11
569.878906
 21
159.884003
 31
0.0
210
0.0
220
0.0
230
1.0
  0
LINE
  5
479
100
AcDbEntity
  8
0
370
    35
390
0
 62
     7
 48
0.02444
100
AcDbLine
 10
563.978882
 20
161.83548
 30
0.0
 11
564.670166
 21
161.144211
 31
0.0
210
0.0
220
0.0
230
1.0
  0
LINE
  5
47A
100
AcDbEntity
  8
0
370
    35
390
0
 62
     7
 48
0.002762
100
AcDbLine
 10
569.98938
 20
190.905396
 30
0.0
 11
569.878906
 21
190.904419
 31
0.0
210
0.0
220
0.0
230
1.0
  0
LINE
  5
47B
100
AcDbEntity
  8
0
370
    35
390
0
 62
     7
 48
0.02444
100
AcDbLine
 10
563.978882
 20
188.952942
 30
0.0
 11
564.670166
 21
189.644211
 31
0.0
210
0.0
220
0.0
230
1.0
  0
CIRCLE
  5
47C
100
AcDbEntity
  8
0
370
    35
390
0
 62
     7
100
AcDbCircle
 10
499.878906
 20
170.594208
 30
0.0
 40
6.75
210
0.0
220
0.0
230
1.0
  0
CIRCLE
  5
47D
100
AcDbEntity
  8
0
370
    35
390
0
 62
     7
100
AcDbCircle
 10
229.878906
 20
171.394211
 30
0.0
 40
2.25
210
0.0
220
0.0
230
1.0
  0
CIRCLE
  5
47E
100
AcDbEntity
  8
0
370
    35
390
0
 62
     7
100
AcDbCircle
 10
449.878906
 20
171.394211
 30
0.0
 40
2.25
210
0.0
220
0.0
230
1.0
  0
LINE
  5
47F
100
AcDbEntity
  8
0
370
    35
390
0
 62
     7
 48
0.005
100
AcDbLine
 10
569.878906
 20
193.194214
 30
0.0
 11
569.878906
 21
192.994217
 31
0.0
210
0.0
220
0.0
230
1.0
  0
LINE
  5
480
100
AcDbEntity
  8
0
370
    35
390
0
 62
     7
 48
0.0075
100
AcDbLine
 10
569.878906
 20
192.994217
 30
0.0
 11
569.878906
 21
192.694214
 31
0.0
210
0.0
220
0.0
230
1.0
  0
LINE
  5
481
100
AcDbEntity
  8
0
370
    35
390
0
 62
     7
 48
0.005
100
AcDbLine
 10
569.878906
 20
192.494217
 30
0.0
 11
569.878906
 21
192.694214
 31
0.0
210
0.0
220
0.0
230
1.0
  0
LINE
  5
482
100
AcDbEntity
  8
0
370
    35
390
0
 62
     7
 48
0.06625
100
AcDbLine
 10
569.878906
 20
189.844208
 30
0.0
 11
569.878906
 21
192.494217
 31
0.0
210
0.0
220
0.0
230
1.0
  0
LINE
  5
483
100
AcDbEntity
  8
0
370
    35
390
0
 62
     7
 48
0.005
100
AcDbLine
 10
569.878906
 20
189.844208
 30
0.0
 11
569.878906
 21
189.644211
 31
0.0
210
0.0
220
0.0
230
1.0
  0
LINE
  5
484
100
AcDbEntity
  8
0
370
    35
390
0
 62
     7
 48
0.005
100
AcDbLine
 10
569.878906
 20
161.144211
 30
0.0
 11
569.878906
 21
160.944214
 31
0.0
210
0.0
220
0.0
230
1.0
  0
LINE
  5
485
100
AcDbEntity
  8
0
370
    35
390
0
 62
     7
 48
0.06625
100
AcDbLine
 10
569.878906
 20
158.29422
 30
0.0
 11
569.878906
 21
160.944214
 31
0.0
210
0.0
220
0.0
230
1.0
  0
LINE
  5
486
100
AcDbEntity
  8
0
370
    35
390
0
 62
     7
 48
0.005
100
AcDbLine
 10
569.878906
 20
158.094208
 30
0.0
 11
569.878906
 21
158.29422
 31
0.0
210
0.0
220
0.0
230
1.0
  0
LINE
  5
487
100
AcDbEntity
  8
0
370
    35
390
0
 62
     7
 48
0.0075
100
AcDbLine
 10
569.878906
 20
158.094208
 30
0.0
 11
569.878906
 21
157.79422
 31
0.0
210
0.0
220
0.0
230
1.0
  0
LINE
  5
488
100
AcDbEntity
  8
0
370
    35
390
0
 62
     7
 48
0.005
100
AcDbLine
 10
569.878906
 20
157.79422
 30
0.0
 11
569.878906
 21
157.594208
 31
0.0
210
0.0
220
0.0
230
1.0
  0
LINE
  5
489
100
AcDbEntity
  8
0
370
    35
390
0
 62
     7
100
AcDbLine
 10
109.878906
 20
193.194214
 30
0.0
 11
569.878906
 21
193.194214
 31
0.0
210
0.0
220
0.0
230
1.0
  0
LINE
  5
48A
100
AcDbEntity
  8
0
370
    35
390
0
 62
     7
 48
0.005
100
AcDbLine
 10
109.878906
 20
193.194214
 30
0.0
 11
109.878906
 21
192.994217
 31
0.0
210
0.0
220
0.0
230
1.0
  0
LINE
  5
48B
100
AcDbEntity
  8
0
370
    35
390
0
 62
     7
100
AcDbLine
 10
109.878906
 20
192.994217
 30
0.0
 11
569.878906
 21
192.994217
 31
0.0
210
0.0
220
0.0
230
1.0
  0
LINE
  5
48C
100
AcDbEntity
  8
0
370
    35
390
0
 62
     7
 48
0.0075
100
AcDbLine
 10
109.878906
 20
192.994217
 30
0.0
 11
109.878906
 21
192.694214
 31
0.0
210
0.0
220
0.0
230
1.0
  0
LINE
  5
48D
100
AcDbEntity
  8
0
370
    35
390
0
 62
     7
100
AcDbLine
 10
109.878906
 20
192.694214
 30
0.0
 11
569.878906
 21
192.694214
 31
0.0
210
0.0
220
0.0
230
1.0
  0
LINE
  5
48E
100
AcDbEntity
  8
0
370
    35
390
0
 62
     7
100
AcDbLine
 10
109.878906
 20
189.844208
 30
0.0
 11
569.878906
 21
189.844208
 31
0.0
210
0.0
220
0.0
230
1.0
  0
LINE
  5
48F
100
AcDbEntity
  8
0
370
    35
390
0
 62
     7
 48
0.005
100
AcDbLine
 10
109.878906
 20
189.844208
 30
0.0
 11
109.878906
 21
189.644211
 31
0.0
210
0.0
220
0.0
230
1.0
  0
LINE
  5
490
100
AcDbEntity
  8
0
370
    35
390
0
 62
     7
100
AcDbLine
 10
109.878906
 20
189.644211
 30
0.0
 11
569.878906
 21
189.644211
 31
0.0
210
0.0
220
0.0
230
1.0
  0
LINE
  5
491
100
AcDbEntity
  8
0
370
    35
390
0
 62
     7
100
AcDbLine
 10
109.878906
 20
161.144211
 30
0.0
 11
569.878906
 21
161.144211
 31
0.0
210
0.0
220
0.0
230
1.0
  0
LINE
  5
492
100
AcDbEntity
  8
0
370
    35
390
0
 62
     7
 48
0.005
100
AcDbLine
 10
109.878906
 20
161.144211
 30
0.0
 11
109.878906
 21
160.944214
 31
0.0
210
0.0
220
0.0
230
1.0
  0
LINE
  5
493
100
AcDbEntity
  8
0
370
    35
390
0
 62
     7
100
AcDbLine
 10
109.878906
 20
160.944214
 30
0.0
 11
569.878906
 21
160.944214
 31
0.0
210
0.0
220
0.0
230
1.0
  0
LINE
  5
494
100
AcDbEntity
  8
0
370
    35
390
0
 62
     7
100
AcDbLine
 10
109.878906
 20
158.094208
 30
0.0
 11
569.878906
 21
158.094208
 31
0.0
210
0.0
220
0.0
230
1.0
  0
LINE
  5
495
100
AcDbEntity
  8
0
370
    35
390
0
 62
     7
 48
0.0075
100
AcDbLine
 10
109.878906
 20
158.094208
 30
0.0
 11
109.878906
 21
157.79422
 31
0.0
210
0.0
220
0.0
230
1.0
  0
LINE
  5
496
100
AcDbEntity
  8
0
370
    35
390
0
 62
     7
100
AcDbLine
 10
109.878906
 20
157.79422
 30
0.0
 11
569.878906
 21
157.79422
 31
0.0
210
0.0
220
0.0
230
1.0
  0
LINE
  5
497
100
AcDbEntity
  8
0
370
    35
390
0
 62
     7
 48
0.005
100
AcDbLine
 10
109.878906
 20
157.79422
 30
0.0
 11
109.878906
 21
157.594208
 31
0.0
210
0.0
220
0.0
230
1.0
  0
LINE
  5
498
100
AcDbEntity
  8
0
370
    35
390
0
 62
     7
100
AcDbLine
 10
109.878906
 20
157.594208
 30
0.0
 11
569.878906
 21
157.594208
 31
0.0
210
0.0
220
0.0
230
1.0
  0
LINE
  5
499
100
AcDbEntity
  8
0
370
    35
390
0
 62
     7
100
AcDbLine
 10
109.878906
 20
158.29422
 30
0.0
 11
569.878906
 21
158.29422
 31
0.0
210
0.0
220
0.0
230
1.0
  0
LINE
  5
49A
100
AcDbEntity
  8
0
370
    35
390
0
 62
     7
 48
0.005
100
AcDbLine
 10
109.878906
 20
158.094208
 30
0.0
 11
109.878906
 21
158.29422
 31
0.0
210
0.0
220
0.0
230
1.0
  0
LINE
  5
49B
100
AcDbEntity
  8
0
370
    35
390
0
 62
     7
 48
0.06625
100
AcDbLine
 10
109.878906
 20
158.29422
 30
0.0
 11
109.878906
 21
160.944214
 31
0.0
210
0.0
220
0.0
230
1.0
  0
LINE
  5
49C
100
AcDbEntity
  8
0
370
    35
390
0
 62
     7
100
AcDbLine
 10
109.878906
 20
192.494217
 30
0.0
 11
569.878906
 21
192.494217
 31
0.0
210
0.0
220
0.0
230
1.0
  0
LINE
  5
49D
100
AcDbEntity
  8
0
370
    35
390
0
 62
     7
 48
0.06625
100
AcDbLine
 10
109.878906
 20
189.844208
 30
0.0
 11
109.878906
 21
192.494217
 31
0.0
210
0.0
220
0.0
230
1.0
  0
LINE
  5
49E
100
AcDbEntity
  8
0
370
    35
390
0
 62
     7
 48
0.005
100
AcDbLine
 10
109.878906
 20
192.494217
 30
0.0
 11
109.878906
 21
192.694214
 31
0.0
210
0.0
220
0.0
230
1.0
  0
POLYLINE
  5
49F
100
AcDbEntity
  8
0
370
    13
390
0
 62
    94
100
AcDb2dPolyline
 66
     1
 10
0.0
 20
0.0
 30
0.0
 70
     1
 71
    53
  0
VERTEX
  5
4A0
100
AcDbEntity
  8
0
370
     0
390
0
100
AcDbVertex
100
AcDb2dVertex
 10
82.150635
 20
377.329407
 30
0.0
  0
VERTEX
  5
4A1
100
AcDbEntity
  8
0
370
     0
390
0
100
AcDbVertex
100
AcDb2dVertex
 10
82.185913
 20
377.329407
 30
0.0
  0
VERTEX
  5
4A2
100
AcDbEntity
  8
0
370
     0
390
0
100
AcDbVertex
100
AcDb2dVertex
 10
82.670105
 20
377.410095
 30
0.0
  0
VERTEX
  5
4A3
100
AcDbEntity
  8
0
370
     0
390
0
100
AcDbVertex
100
AcDb2dVertex
 10
83.033203
 20
377.647156
 30
0.0
  0
VERTEX
  5
4A4
100
AcDbEntity
  8
0
370
     0
390
0
100
AcDbVertex
100
AcDb2dVertex
 10
83.265198
 20
378.020325
 30
0.0
  0
VERTEX
  5
4A5
100
AcDbEntity
  8
0
370
     0
390
0
100
AcDbVertex
100
AcDb2dVertex
 10
83.350952
 20
378.514587
 30
0.0
  0
VERTEX
  5
4A6
100
AcDbEntity
  8
0
370
     0
390
0
100
AcDbVertex
100
AcDb2dVertex
 10
83.265198
 20
379.039063
 30
0.0
  0
VERTEX
  5
4A7
100
AcDbEntity
  8
0
370
     0
390
0
100
AcDbVertex
100
AcDb2dVertex
 10
83.043274
 20
379.432434
 30
0.0
  0
VERTEX
  5
4A8
100
AcDbEntity
  8
0
370
     0
390
0
100
AcDbVertex
100
AcDb2dVertex
 10
82.690247
 20
379.684601
 30
0.0
  0
VERTEX
  5
4A9
100
AcDbEntity
  8
0
370
     0
390
0
100
AcDbVertex
100
AcDb2dVertex
 10
82.236389
 20
379.775391
 30
0.0
  0
VERTEX
  5
4AA
100
AcDbEntity
  8
0
370
     0
390
0
100
AcDbVertex
100
AcDb2dVertex
 10
81.938843
 20
379.735046
 30
0.0
  0
VERTEX
  5
4AB
100
AcDbEntity
  8
0
370
     0
390
0
100
AcDbVertex
100
AcDb2dVertex
 10
81.696777
 20
379.624084
 30
0.0
  0
VERTEX
  5
4AC
100
AcDbEntity
  8
0
370
     0
390
0
100
AcDbVertex
100
AcDb2dVertex
 10
81.510132
 20
379.442535
 30
0.0
  0
VERTEX
  5
4AD
100
AcDbEntity
  8
0
370
     0
390
0
100
AcDbVertex
100
AcDb2dVertex
 10
81.373962
 20
379.20047
 30
0.0
  0
VERTEX
  5
4AE
100
AcDbEntity
  8
0
370
     0
390
0
100
AcDbVertex
100
AcDb2dVertex
 10
81.101624
 20
379.528259
 30
0.0
  0
VERTEX
  5
4AF
100
AcDbEntity
  8
0
370
     0
390
0
100
AcDbVertex
100
AcDb2dVertex
 10
80.667908
 20
379.644257
 30
0.0
  0
VERTEX
  5
4B0
100
AcDbEntity
  8
0
370
     0
390
0
100
AcDbVertex
100
AcDb2dVertex
 10
80.274536
 20
379.568604
 30
0.0
  0
VERTEX
  5
4B1
100
AcDbEntity
  8
0
370
     0
390
0
100
AcDbVertex
100
AcDb2dVertex
 10
79.97699
 20
379.351746
 30
0.0
  0
VERTEX
  5
4B2
100
AcDbEntity
  8
0
370
     0
390
0
100
AcDbVertex
100
AcDb2dVertex
 10
79.790405
 20
378.998718
 30
0.0
  0
VERTEX
  5
4B3
100
AcDbEntity
  8
0
370
     0
390
0
100
AcDbVertex
100
AcDb2dVertex
 10
79.724854
 20
378.514587
 30
0.0
  0
VERTEX
  5
4B4
100
AcDbEntity
  8
0
370
     0
390
0
100
AcDbVertex
100
AcDb2dVertex
 10
79.805542
 20
378.060699
 30
0.0
  0
VERTEX
  5
4B5
100
AcDbEntity
  8
0
370
     0
390
0
100
AcDbVertex
100
AcDb2dVertex
 10
80.027466
 20
377.712708
 30
0.0
  0
VERTEX
  5
4B6
100
AcDbEntity
  8
0
370
     0
390
0
100
AcDbVertex
100
AcDb2dVertex
 10
80.380493
 20
377.485748
 30
0.0
  0
VERTEX
  5
4B7
100
AcDbEntity
  8
0
370
     0
390
0
100
AcDbVertex
100
AcDb2dVertex
 10
80.849487
 20
377.410095
 30
0.0
  0
VERTEX
  5
4B8
100
AcDbEntity
  8
0
370
     0
390
0
100
AcDbVertex
100
AcDb2dVertex
 10
80.884766
 20
377.410095
 30
0.0
  0
VERTEX
  5
4B9
100
AcDbEntity
  8
0
370
     0
390
0
100
AcDbVertex
100
AcDb2dVertex
 10
80.884766
 20
377.858948
 30
0.0
  0
VERTEX
  5
4BA
100
AcDbEntity
  8
0
370
     0
390
0
100
AcDbVertex
100
AcDb2dVertex
 10
80.562012
 20
377.899292
 30
0.0
  0
VERTEX
  5
4BB
100
AcDbEntity
  8
0
370
     0
390
0
100
AcDbVertex
100
AcDb2dVertex
 10
80.330017
 20
378.030426
 30
0.0
  0
VERTEX
  5
4BC
100
AcDbEntity
  8
0
370
     0
390
0
100
AcDbVertex
100
AcDb2dVertex
 10
80.188843
 20
378.242249
 30
0.0
  0
VERTEX
  5
4BD
100
AcDbEntity
  8
0
370
     0
390
0
100
AcDbVertex
100
AcDb2dVertex
 10
80.138367
 20
378.539795
 30
0.0
  0
VERTEX
  5
4BE
100
AcDbEntity
  8
0
370
     0
390
0
100
AcDbVertex
100
AcDb2dVertex
 10
80.178711
 20
378.802032
 30
0.0
  0
VERTEX
  5
4BF
100
AcDbEntity
  8
0
370
     0
390
0
100
AcDbVertex
100
AcDb2dVertex
 10
80.284668
 20
378.993683
 30
0.0
  0
VERTEX
  5
4C0
100
AcDbEntity
  8
0
370
     0
390
0
100
AcDbVertex
100
AcDb2dVertex
 10
80.456116
 20
379.10968
 30
0.0
  0
VERTEX
  5
4C1
100
AcDbEntity
  8
0
370
     0
390
0
100
AcDbVertex
100
AcDb2dVertex
 10
80.68811
 20
379.15506
 30
0.0
  0
VERTEX
  5
4C2
100
AcDbEntity
  8
0
370
     0
390
0
100
AcDbVertex
100
AcDb2dVertex
 10
80.935242
 20
379.10968
 30
0.0
  0
VERTEX
  5
4C3
100
AcDbEntity
  8
0
370
     0
390
0
100
AcDbVertex
100
AcDb2dVertex
 10
81.101624
 20
378.988647
 30
0.0
  0
VERTEX
  5
4C4
100
AcDbEntity
  8
0
370
     0
390
0
100
AcDbVertex
100
AcDb2dVertex
 10
81.202515
 20
378.776825
 30
0.0
  0
VERTEX
  5
4C5
100
AcDbEntity
  8
0
370
     0
390
0
100
AcDbVertex
100
AcDb2dVertex
 10
81.232788
 20
378.489349
 30
0.0
  0
VERTEX
  5
4C6
100
AcDbEntity
  8
0
370
     0
390
0
100
AcDbVertex
100
AcDb2dVertex
 10
81.227722
 20
378.292664
 30
0.0
  0
VERTEX
  5
4C7
100
AcDbEntity
  8
0
370
     0
390
0
100
AcDbVertex
100
AcDb2dVertex
 10
81.62616
 20
378.292664
 30
0.0
  0
VERTEX
  5
4C8
100
AcDbEntity
  8
0
370
     0
390
0
100
AcDbVertex
100
AcDb2dVertex
 10
81.616028
 20
378.539795
 30
0.0
  0
VERTEX
  5
4C9
100
AcDbEntity
  8
0
370
     0
390
0
100
AcDbVertex
100
AcDb2dVertex
 10
81.661438
 20
378.857513
 30
0.0
  0
VERTEX
  5
4CA
100
AcDbEntity
  8
0
370
     0
390
0
100
AcDbVertex
100
AcDb2dVertex
 10
81.782471
 20
379.094543
 30
0.0
  0
VERTEX
  5
4CB
100
AcDbEntity
  8
0
370
     0
390
0
100
AcDbVertex
100
AcDb2dVertex
 10
81.979187
 20
379.235748
 30
0.0
  0
VERTEX
  5
4CC
100
AcDbEntity
  8
0
370
     0
390
0
100
AcDbVertex
100
AcDb2dVertex
 10
82.236389
 20
379.286194
 30
0.0
  0
VERTEX
  5
4CD
100
AcDbEntity
  8
0
370
     0
390
0
100
AcDbVertex
100
AcDb2dVertex
 10
82.52887
 20
379.230713
 30
0.0
  0
VERTEX
  5
4CE
100
AcDbEntity
  8
0
370
     0
390
0
100
AcDbVertex
100
AcDb2dVertex
 10
82.745728
 20
379.084473
 30
0.0
  0
VERTEX
  5
4CF
100
AcDbEntity
  8
0
370
     0
390
0
100
AcDbVertex
100
AcDb2dVertex
 10
82.881897
 20
378.852478
 30
0.0
  0
VERTEX
  5
4D0
100
AcDbEntity
  8
0
370
     0
390
0
100
AcDbVertex
100
AcDb2dVertex
 10
82.927307
 20
378.54483
 30
0.0
  0
VERTEX
  5
4D1
100
AcDbEntity
  8
0
370
     0
390
0
100
AcDbVertex
100
AcDb2dVertex
 10
82.876892
 20
378.227112
 30
0.0
  0
VERTEX
  5
4D2
100
AcDbEntity
  8
0
370
     0
390
0
100
AcDbVertex
100
AcDb2dVertex
 10
82.725586
 20
377.995117
 30
0.0
  0
VERTEX
  5
4D3
100
AcDbEntity
  8
0
370
     0
390
0
100
AcDbVertex
100
AcDb2dVertex
 10
82.483521
 20
377.848877
 30
0.0
  0
VERTEX
  5
4D4
100
AcDbEntity
  8
0
370
     0
390
0
100
AcDbVertex
100
AcDb2dVertex
 10
82.150635
 20
377.793396
 30
0.0
  0
SEQEND
  5
4D5
100
AcDbEntity
  8
0
370
     0
390
0
  0
POLYLINE
  5
4D6
100
AcDbEntity
  8
0
370
    13
390
0
 62
    94
100
AcDb2dPolyline
 66
     1
 10
0.0
 20
0.0
 30
0.0
 70
     1
 71
    35
  0
VERTEX
  5
4D7
100
AcDbEntity
  8
0
370
     0
390
0
100
AcDbVertex
100
AcDb2dVertex
 10
80.693115
 20
383.546722
 30
0.0
  0
VERTEX
  5
4D8
100
AcDbEntity
  8
0
370
     0
390
0
100
AcDbVertex
100
AcDb2dVertex
 10
80.284668
 20
383.450897
 30
0.0
  0
VERTEX
  5
4D9
100
AcDbEntity
  8
0
370
     0
390
0
100
AcDbVertex
100
AcDb2dVertex
 10
79.982056
 20
383.228973
 30
0.0
  0
VERTEX
  5
4DA
100
AcDbEntity
  8
0
370
     0
390
0
100
AcDbVertex
100
AcDb2dVertex
 10
79.790405
 20
382.886047
 30
0.0
  0
VERTEX
  5
4DB
100
AcDbEntity
  8
0
370
     0
390
0
100
AcDbVertex
100
AcDb2dVertex
 10
79.724854
 20
382.44223
 30
0.0
  0
VERTEX
  5
4DC
100
AcDbEntity
  8
0
370
     0
390
0
100
AcDbVertex
100
AcDb2dVertex
 10
79.760132
 20
382.144684
 30
0.0
  0
VERTEX
  5
4DD
100
AcDbEntity
  8
0
370
     0
390
0
100
AcDbVertex
100
AcDb2dVertex
 10
79.855957
 20
381.887482
 30
0.0
  0
VERTEX
  5
4DE
100
AcDbEntity
  8
0
370
     0
390
0
100
AcDbVertex
100
AcDb2dVertex
 10
80.012329
 20
381.660553
 30
0.0
  0
VERTEX
  5
4DF
100
AcDbEntity
  8
0
370
     0
390
0
100
AcDbVertex
100
AcDb2dVertex
 10
80.234192
 20
381.468903
 30
0.0
  0
VERTEX
  5
4E0
100
AcDbEntity
  8
0
370
     0
390
0
100
AcDbVertex
100
AcDb2dVertex
 10
80.511597
 20
381.317596
 30
0.0
  0
VERTEX
  5
4E1
100
AcDbEntity
  8
0
370
     0
390
0
100
AcDbVertex
100
AcDb2dVertex
 10
80.849487
 20
381.206665
 30
0.0
  0
VERTEX
  5
4E2
100
AcDbEntity
  8
0
370
     0
390
0
100
AcDbVertex
100
AcDb2dVertex
 10
81.247925
 20
381.136047
 30
0.0
  0
VERTEX
  5
4E3
100
AcDbEntity
  8
0
370
     0
390
0
100
AcDbVertex
100
AcDb2dVertex
 10
81.696777
 20
381.115875
 30
0.0
  0
VERTEX
  5
4E4
100
AcDbEntity
  8
0
370
     0
390
0
100
AcDbVertex
100
AcDb2dVertex
 10
82.412903
 20
381.196564
 30
0.0
  0
VERTEX
  5
4E5
100
AcDbEntity
  8
0
370
     0
390
0
100
AcDbVertex
100
AcDb2dVertex
 10
82.932312
 20
381.443695
 30
0.0
  0
VERTEX
  5
4E6
100
AcDbEntity
  8
0
370
     0
390
0
100
AcDbVertex
100
AcDb2dVertex
 10
83.244995
 20
381.842102
 30
0.0
  0
VERTEX
  5
4E7
100
AcDbEntity
  8
0
370
     0
390
0
100
AcDbVertex
100
AcDb2dVertex
 10
83.350952
 20
382.38678
 30
0.0
  0
VERTEX
  5
4E8
100
AcDbEntity
  8
0
370
     0
390
0
100
AcDbVertex
100
AcDb2dVertex
 10
83.260132
 20
382.875946
 30
0.0
  0
VERTEX
  5
4E9
100
AcDbEntity
  8
0
370
     0
390
0
100
AcDbVertex
100
AcDb2dVertex
 10
83.023132
 20
383.249146
 30
0.0
  0
VERTEX
  5
4EA
100
AcDbEntity
  8
0
370
     0
390
0
100
AcDbVertex
100
AcDb2dVertex
 10
82.649902
 20
383.491241
 30
0.0
  0
VERTEX
  5
4EB
100
AcDbEntity
  8
0
370
     0
390
0
100
AcDbVertex
100
AcDb2dVertex
 10
82.175842
 20
383.576965
 30
0.0
  0
VERTEX
  5
4EC
100
AcDbEntity
  8
0
370
     0
390
0
100
AcDbVertex
100
AcDb2dVertex
 10
81.696777
 20
383.491241
 30
0.0
  0
VERTEX
  5
4ED
100
AcDbEntity
  8
0
370
     0
390
0
100
AcDbVertex
100
AcDb2dVertex
 10
81.328613
 20
383.259247
 30
0.0
  0
VERTEX
  5
4EE
100
AcDbEntity
  8
0
370
     0
390
0
100
AcDbVertex
100
AcDb2dVertex
 10
81.096619
 20
382.901184
 30
0.0
  0
VERTEX
  5
4EF
100
AcDbEntity
  8
0
370
     0
390
0
100
AcDbVertex
100
AcDb2dVertex
 10
81.01593
 20
382.457367
 30
0.0
  0
VERTEX
  5
4F0
100
AcDbEntity
  8
0
370
     0
390
0
100
AcDbVertex
100
AcDb2dVertex
 10
81.11676
 20
381.978271
 30
0.0
  0
VERTEX
  5
4F1
100
AcDbEntity
  8
0
370
     0
390
0
100
AcDbVertex
100
AcDb2dVertex
 10
81.404236
 20
381.620209
 30
0.0
  0
VERTEX
  5
4F2
100
AcDbEntity
  8
0
370
     0
390
0
100
AcDbVertex
100
AcDb2dVertex
 10
80.849487
 20
381.695831
 30
0.0
  0
VERTEX
  5
4F3
100
AcDbEntity
  8
0
370
     0
390
0
100
AcDbVertex
100
AcDb2dVertex
 10
80.45105
 20
381.857239
 30
0.0
  0
VERTEX
  5
4F4
100
AcDbEntity
  8
0
370
     0
390
0
100
AcDbVertex
100
AcDb2dVertex
 10
80.21405
 20
382.10434
 30
0.0
  0
VERTEX
  5
4F5
100
AcDbEntity
  8
0
370
     0
390
0
100
AcDbVertex
100
AcDb2dVertex
 10
80.133362
 20
382.447296
 30
0.0
  0
VERTEX
  5
4F6
100
AcDbEntity
  8
0
370
     0
390
0
100
AcDbVertex
100
AcDb2dVertex
 10
80.173706
 20
382.699432
 30
0.0
  0
VERTEX
  5
4F7
100
AcDbEntity
  8
0
370
     0
390
0
100
AcDbVertex
100
AcDb2dVertex
 10
80.279602
 20
382.891083
 30
0.0
  0
VERTEX
  5
4F8
100
AcDbEntity
  8
0
370
     0
390
0
100
AcDbVertex
100
AcDb2dVertex
 10
80.456116
 20
383.017181
 30
0.0
  0
VERTEX
  5
4F9
100
AcDbEntity
  8
0
370
     0
390
0
100
AcDbVertex
100
AcDb2dVertex
 10
80.693115
 20
383.082733
 30
0.0
  0
SEQEND
  5
4FA
100
AcDbEntity
  8
0
370
     0
390
0
  0
POLYLINE
  5
4FB
100
AcDbEntity
  8
0
370
    13
390
0
 62
    94
100
AcDb2dPolyline
 66
     1
 10
0.0
 20
0.0
 30
0.0
 70
     1
 71
    16
  0
VERTEX
  5
4FC
100
AcDbEntity
  8
0
370
     0
390
0
100
AcDbVertex
100
AcDb2dVertex
 10
82.180908
 20
383.087769
 30
0.0
  0
VERTEX
  5
4FD
100
AcDbEntity
  8
0
370
     0
390
0
100
AcDbVertex
100
AcDb2dVertex
 10
82.498596
 20
383.032288
 30
0.0
  0
VERTEX
  5
4FE
100
AcDbEntity
  8
0
370
     0
390
0
100
AcDbVertex
100
AcDb2dVertex
 10
82.740723
 20
382.891083
 30
0.0
  0
VERTEX
  5
4FF
100
AcDbEntity
  8
0
370
     0
390
0
100
AcDbVertex
100
AcDb2dVertex
 10
82.9021
 20
382.664154
 30
0.0
  0
VERTEX
  5
500
100
AcDbEntity
  8
0
370
     0
390
0
100
AcDbVertex
100
AcDb2dVertex
 10
82.952515
 20
382.381714
 30
0.0
  0
VERTEX
  5
501
100
AcDbEntity
  8
0
370
     0
390
0
100
AcDbVertex
100
AcDb2dVertex
 10
82.9021
 20
382.084167
 30
0.0
  0
VERTEX
  5
502
100
AcDbEntity
  8
0
370
     0
390
0
100
AcDbVertex
100
AcDb2dVertex
 10
82.745728
 20
381.857239
 30
0.0
  0
VERTEX
  5
503
100
AcDbEntity
  8
0
370
     0
390
0
100
AcDbVertex
100
AcDb2dVertex
 10
82.503662
 20
381.710968
 30
0.0
  0
VERTEX
  5
504
100
AcDbEntity
  8
0
370
     0
390
0
100
AcDbVertex
100
AcDb2dVertex
 10
82.185913
 20
381.665588
 30
0.0
  0
VERTEX
  5
505
100
AcDbEntity
  8
0
370
     0
390
0
100
AcDbVertex
100
AcDb2dVertex
 10
81.87323
 20
381.716003
 30
0.0
  0
VERTEX
  5
506
100
AcDbEntity
  8
0
370
     0
390
0
100
AcDbVertex
100
AcDb2dVertex
 10
81.63623
 20
381.857239
 30
0.0
  0
VERTEX
  5
507
100
AcDbEntity
  8
0
370
     0
390
0
100
AcDbVertex
100
AcDb2dVertex
 10
81.484924
 20
382.089203
 30
0.0
  0
VERTEX
  5
508
100
AcDbEntity
  8
0
370
     0
390
0
100
AcDbVertex
100
AcDb2dVertex
 10
81.429443
 20
382.401886
 30
0.0
  0
VERTEX
  5
509
100
AcDbEntity
  8
0
370
     0
390
0
100
AcDbVertex
100
AcDb2dVertex
 10
81.484924
 20
382.674225
 30
0.0
  0
VERTEX
  5
50A
100
AcDbEntity
  8
0
370
     0
390
0
100
AcDbVertex
100
AcDb2dVertex
 10
81.631165
 20
382.891083
 30
0.0
  0
VERTEX
  5
50B
100
AcDbEntity
  8
0
370
     0
390
0
100
AcDbVertex
100
AcDb2dVertex
 10
81.868225
 20
383.032288
 30
0.0
  0
SEQEND
  5
50C
100
AcDbEntity
  8
0
370
     0
390
0
  0
LINE
  5
50D
100
AcDbEntity
  8
0
370
    13
390
0
 62
    94
 48
0.116072
100
AcDbLine
 10
87.892944
 20
362.472717
 30
0.0
 11
83.250061
 21
362.472717
 31
0.0
210
0.0
220
0.0
230
1.0
  0
LINE
  5
50E
100
AcDbEntity
  8
0
370
    13
390
0
 62
    94
 48
0.116072
100
AcDbLine
 10
87.892944
 20
398.463928
 30
0.0
 11
83.250061
 21
398.463928
 31
0.0
210
0.0
220
0.0
230
1.0
  0
POLYLINE
  5
50F
100
AcDbEntity
  8
0
370
    13
390
0
 62
     7
100
AcDb2dPolyline
 66
     1
 10
0.0
 20
0.0
 30
0.0
 71
     3
  0
VERTEX
  5
510
100
AcDbEntity
  8
0
370
     0
390
0
100
AcDbVertex
100
AcDb2dVertex
 10
84.732422
 20
364.404572
 30
0.0
  0
VERTEX
  5
511
100
AcDbEntity
  8
0
370
     0
390
0
100
AcDbVertex
100
AcDb2dVertex
 10
85.250061
 20
362.472717
 30
0.0
  0
VERTEX
  5
512
100
AcDbEntity
  8
0
370
     0
390
0
100
AcDbVertex
100
AcDb2dVertex
 10
85.7677
 20
364.404572
 30
0.0
  0
SEQEND
  5
513
100
AcDbEntity
  8
0
370
     0
390
0
  0
POLYLINE
  5
514
100
AcDbEntity
  8
0
370
    13
390
0
 62
     7
100
AcDb2dPolyline
 66
     1
 10
0.0
 20
0.0
 30
0.0
 71
     3
  0
VERTEX
  5
515
100
AcDbEntity
  8
0
370
     0
390
0
100
AcDbVertex
100
AcDb2dVertex
 10
85.7677
 20
396.532074
 30
0.0
  0
VERTEX
  5
516
100
AcDbEntity
  8
0
370
     0
390
0
100
AcDbVertex
100
AcDb2dVertex
 10
85.250061
 20
398.463928
 30
0.0
  0
VERTEX
  5
517
100
AcDbEntity
  8
0
370
     0
390
0
100
AcDbVertex
100
AcDb2dVertex
 10
84.732422
 20
396.532074
 30
0.0
  0
SEQEND
  5
518
100
AcDbEntity
  8
0
370
     0
390
0
  0
LINE
  5
519
100
AcDbEntity
  8
0
370
    13
390
0
 62
    94
100
AcDbLine
 10
85.250061
 20
362.472717
 30
0.0
 11
85.250061
 21
398.463928
 31
0.0
210
0.0
220
0.0
230
1.0
  0
LINE
  5
51A
100
AcDbEntity
  8
0
370
    13
390
0
 62
     7
100
AcDbLine
 10
569.89801
 20
362.472778
 30
0.0
 11
109.89801
 21
362.472778
 31
0.0
210
0.0
220
0.0
230
1.0
  0
LINE
  5
51B
100
AcDbEntity
  8
0
370
    35
390
0
 62
     7
 48
0.021929
100
AcDbLine
 10
109.89801
 20
362.472778
 30
0.0
 11
109.89801
 21
363.349945
 31
0.0
210
0.0
220
0.0
230
1.0
  0
LINE
  5
51C
100
AcDbEntity
  8
0
370
    35
390
0
 62
     7
 48
0.012498
100
AcDbLine
 10
109.89801
 20
363.849884
 30
0.0
 11
109.89801
 21
363.349945
 31
0.0
210
0.0
220
0.0
230
1.0
  0
LINE
  5
51D
100
AcDbEntity
  8
0
370
    35
390
0
 62
     7
 48
0.015461
100
AcDbLine
 10
109.89801
 20
363.849884
 30
0.0
 11
109.89801
 21
364.468323
 31
0.0
210
0.0
220
0.0
230
1.0
  0
LINE
  5
51E
100
AcDbEntity
  8
0
370
    35
390
0
 62
     7
 48
0.015461
100
AcDbLine
 10
109.89801
 20
396.468323
 30
0.0
 11
109.89801
 21
397.086761
 31
0.0
210
0.0
220
0.0
230
1.0
  0
LINE
  5
51F
100
AcDbEntity
  8
0
370
    35
390
0
 62
     7
 48
0.012498
100
AcDbLine
 10
109.89801
 20
397.5867
 30
0.0
 11
109.89801
 21
397.086761
 31
0.0
210
0.0
220
0.0
230
1.0
  0
LINE
  5
520
100
AcDbEntity
  8
0
370
    35
390
0
 62
     7
 48
0.021929
100
AcDbLine
 10
109.89801
 20
398.463867
 30
0.0
 11
109.89801
 21
397.5867
 31
0.0
210
0.0
220
0.0
230
1.0
  0
LINE
  5
521
100
AcDbEntity
  8
0
370
    13
390
0
 62
     7
100
AcDbLine
 10
569.89801
 20
363.349945
 30
0.0
 11
109.89801
 21
363.349945
 31
0.0
210
0.0
220
0.0
230
1.0
  0
LINE
  5
522
100
AcDbEntity
  8
0
370
    35
390
0
 62
     7
 48
0.021929
100
AcDbLine
 10
569.89801
 20
362.472778
 30
0.0
 11
569.89801
 21
363.349945
 31
0.0
210
0.0
220
0.0
230
1.0
  0
LINE
  5
523
100
AcDbEntity
  8
0
370
    35
390
0
 62
     7
 48
0.012498
100
AcDbLine
 10
569.89801
 20
363.349945
 30
0.0
 11
569.89801
 21
363.849884
 31
0.0
210
0.0
220
0.0
230
1.0
  0
LINE
  5
524
100
AcDbEntity
  8
0
370
    13
390
0
 62
     7
100
AcDbLine
 10
569.89801
 20
363.849884
 30
0.0
 11
109.89801
 21
363.849884
 31
0.0
210
0.0
220
0.0
230
1.0
  0
LINE
  5
525
100
AcDbEntity
  8
0
370
    35
390
0
 62
     7
100
AcDbLine
 10
569.89801
 20
364.468323
 30
0.0
 11
109.89801
 21
364.468323
 31
0.0
210
0.0
220
0.0
230
1.0
  0
LINE
  5
526
100
AcDbEntity
  8
0
370
    35
390
0
 62
     7
 48
0.015461
100
AcDbLine
 10
569.89801
 20
363.849884
 30
0.0
 11
569.89801
 21
364.468323
 31
0.0
210
0.0
220
0.0
230
1.0
  0
LINE
  5
527
100
AcDbEntity
  8
0
370
    35
390
0
 62
     7
100
AcDbLine
 10
569.89801
 20
396.468323
 30
0.0
 11
109.89801
 21
396.468323
 31
0.0
210
0.0
220
0.0
230
1.0
  0
LINE
  5
528
100
AcDbEntity
  8
0
370
    13
390
0
 62
     7
100
AcDbLine
 10
569.89801
 20
397.086761
 30
0.0
 11
109.89801
 21
397.086761
 31
0.0
210
0.0
220
0.0
230
1.0
  0
LINE
  5
529
100
AcDbEntity
  8
0
370
    35
390
0
 62
     7
 48
0.015461
100
AcDbLine
 10
569.89801
 20
396.468323
 30
0.0
 11
569.89801
 21
397.086761
 31
0.0
210
0.0
220
0.0
230
1.0
  0
LINE
  5
52A
100
AcDbEntity
  8
0
370
    35
390
0
 62
     7
 48
0.012498
100
AcDbLine
 10
569.89801
 20
397.086761
 30
0.0
 11
569.89801
 21
397.5867
 31
0.0
210
0.0
220
0.0
230
1.0
  0
LINE
  5
52B
100
AcDbEntity
  8
0
370
    13
390
0
 62
     7
100
AcDbLine
 10
569.89801
 20
397.5867
 30
0.0
 11
109.89801
 21
397.5867
 31
0.0
210
0.0
220
0.0
230
1.0
  0
LINE
  5
52C
100
AcDbEntity
  8
0
370
    13
390
0
 62
     7
100
AcDbLine
 10
569.89801
 20
398.463867
 30
0.0
 11
109.89801
 21
398.463867
 31
0.0
210
0.0
220
0.0
230
1.0
  0
LINE
  5
52D
100
AcDbEntity
  8
0
370
    35
390
0
 62
     7
 48
0.021929
100
AcDbLine
 10
569.89801
 20
398.463867
 30
0.0
 11
569.89801
 21
397.5867
 31
0.0
210
0.0
220
0.0
230
1.0
  0
LINE
  5
52E
100
AcDbEntity
  8
0
370
    35
390
0
 62
     7
100
AcDbLine
 10
109.89801
 20
362.472717
 30
0.0
 11
569.89801
 21
362.472717
 31
0.0
210
0.0
220
0.0
230
1.0
  0
LINE
  5
52F
100
AcDbEntity
  8
0
370
    35
390
0
 62
     7
100
AcDbLine
 10
569.89801
 20
398.463928
 30
0.0
 11
109.89801
 21
398.463928
 31
0.0
210
0.0
220
0.0
230
1.0
  0
LINE
  5
530
100
AcDbEntity
  8
0
370
    13
390
0
 62
     7
 48
0.005
100
AcDbLine
 10
109.678894
 20
363.849884
 30
0.0
 11
109.878906
 21
363.849884
 31
0.0
210
0.0
220
0.0
230
1.0
  0
LINE
  5
531
100
AcDbEntity
  8
0
370
    35
390
0
 62
     7
100
AcDbLine
 10
109.878906
 20
397.086761
 30
0.0
 11
109.878906
 21
363.849884
 31
0.0
210
0.0
220
0.0
230
1.0
  0
LINE
  5
532
100
AcDbEntity
  8
0
370
    13
390
0
 62
     7
 48
0.005
100
AcDbLine
 10
109.678894
 20
397.086761
 30
0.0
 11
109.878906
 21
397.086761
 31
0.0
210
0.0
220
0.0
230
1.0
  0
LINE
  5
533
100
AcDbEntity
  8
0
370
    13
390
0
 62
     7
 48
0.415461
100
AcDbLine
 10
109.678894
 20
397.086761
 30
0.0
 11
109.678894
 21
380.468323
 31
0.0
210
0.0
220
0.0
230
1.0
  0
LINE
  5
534
100
AcDbEntity
  8
0
370
    13
390
0
 62
     7
 48
0.415461
100
AcDbLine
 10
109.678894
 20
363.849884
 30
0.0
 11
109.678894
 21
380.468323
 31
0.0
210
0.0
220
0.0
230
1.0
  0
ELLIPSE
  5
535
100
AcDbEntity
  8
0
370
    13
390
0
 62
     7
100
AcDbEllipse
 10
109.678894
 20
398.263916
 30
0.0
 11
-0.20001220703125
 21
0.0
 31
0.0
210
0.0
220
0.0
230
1.0
 40
0.999848
 41
3.1415926535897931
 42
4.7123889803846897
  0
ELLIPSE
  5
536
100
AcDbEntity
  8
0
370
    13
390
0
 62
     7
100
AcDbEllipse
 10
109.678894
 20
397.386719
 30
0.0
 11
-0.20001220703125
 21
0.0
 31
0.0
210
0.0
220
0.0
230
1.0
 40
0.999848
 41
3.1415926535897931
 42
4.7123889803846897
  0
LINE
  5
537
100
AcDbEntity
  8
0
370
    35
390
0
 62
     7
 48
0.02193
100
AcDbLine
 10
109.878906
 20
398.263916
 30
0.0
 11
109.878906
 21
397.386719
 31
0.0
210
0.0
220
0.0
230
1.0
  0
LINE
  5
538
100
AcDbEntity
  8
0
370
    13
390
0
 62
     7
 48
0.021929
100
AcDbLine
 10
109.678894
 20
398.463867
 30
0.0
 11
109.678894
 21
397.5867
 31
0.0
210
0.0
220
0.0
230
1.0
  0
LINE
  5
539
100
AcDbEntity
  8
0
370
    35
390
0
 62
     7
 48
0.007499
100
AcDbLine
 10
109.878906
 20
397.386719
 30
0.0
 11
109.878906
 21
397.086761
 31
0.0
210
0.0
220
0.0
230
1.0
  0
LINE
  5
53A
100
AcDbEntity
  8
0
370
    13
390
0
 62
     7
 48
0.012498
100
AcDbLine
 10
109.678894
 20
397.5867
 30
0.0
 11
109.678894
 21
397.086761
 31
0.0
210
0.0
220
0.0
230
1.0
  0
ELLIPSE
  5
53B
100
AcDbEntity
  8
0
370
    13
390
0
 62
     7
100
AcDbEllipse
 10
109.678894
 20
363.549927
 30
0.0
 11
-0.20001220703125
 21
0.0
 31
0.0
210
0.0
220
0.0
230
1.0
 40
0.999848
 41
1.5707963267948966
 42
3.1415926535897931
  0
LINE
  5
53C
100
AcDbEntity
  8
0
370
    35
390
0
 62
     7
 48
0.007499
100
AcDbLine
 10
109.878906
 20
363.849884
 30
0.0
 11
109.878906
 21
363.549927
 31
0.0
210
0.0
220
0.0
230
1.0
  0
LINE
  5
53D
100
AcDbEntity
  8
0
370
    13
390
0
 62
     7
 48
0.012498
100
AcDbLine
 10
109.678894
 20
363.849884
 30
0.0
 11
109.678894
 21
363.349945
 31
0.0
210
0.0
220
0.0
230
1.0
  0
ELLIPSE
  5
53E
100
AcDbEntity
  8
0
370
    13
390
0
 62
     7
100
AcDbEllipse
 10
109.678894
 20
362.672729
 30
0.0
 11
-0.20001220703125
 21
0.0
 31
0.0
210
0.0
220
0.0
230
1.0
 40
0.999848
 41
1.5707963267948966
 42
3.1415926535897931
  0
LINE
  5
53F
100
AcDbEntity
  8
0
370
    35
390
0
 62
     7
 48
0.02193
100
AcDbLine
 10
109.878906
 20
362.672729
 30
0.0
 11
109.878906
 21
363.549927
 31
0.0
210
0.0
220
0.0
230
1.0
  0
LINE
  5
540
100
AcDbEntity
  8
0
370
    13
390
0
 62
     7
 48
0.021929
100
AcDbLine
 10
109.678894
 20
362.472778
 30
0.0
 11
109.678894
 21
363.349945
 31
0.0
210
0.0
220
0.0
230
1.0
  0
LINE
  5
541
100
AcDbEntity
  8
0
370
    13
390
0
 62
     7
 48
0.027499
100
AcDbLine
 10
109.678894
 20
398.463867
 30
0.0
 11
108.578918
 21
398.463867
 31
0.0
210
0.0
220
0.0
230
1.0
  0
LINE
  5
542
100
AcDbEntity
  8
0
370
    13
390
0
 62
     7
 48
0.027499
100
AcDbLine
 10
109.678894
 20
362.472778
 30
0.0
 11
108.578918
 21
362.472778
 31
0.0
210
0.0
220
0.0
230
1.0
  0
LINE
  5
543
100
AcDbEntity
  8
0
370
    13
390
0
 62
     7
 48
0.027499
100
AcDbLine
 10
109.678894
 20
363.349945
 30
0.0
 11
108.578918
 21
363.349945
 31
0.0
210
0.0
220
0.0
230
1.0
  0
LINE
  5
544
100
AcDbEntity
  8
0
370
    13
390
0
 62
     7
 48
0.021929
100
AcDbLine
 10
108.578918
 20
362.472778
 30
0.0
 11
108.578918
 21
363.349945
 31
0.0
210
0.0
220
0.0
230
1.0
  0
LINE
  5
545
100
AcDbEntity
  8
0
370
    13
390
0
 62
     7
 48
0.027499
100
AcDbLine
 10
109.678894
 20
363.849884
 30
0.0
 11
108.578918
 21
363.849884
 31
0.0
210
0.0
220
0.0
230
1.0
  0
LINE
  5
546
100
AcDbEntity
  8
0
370
    13
390
0
 62
     7
 48
0.012498
100
AcDbLine
 10
108.578918
 20
363.849884
 30
0.0
 11
108.578918
 21
363.349945
 31
0.0
210
0.0
220
0.0
230
1.0
  0
LINE
  5
547
100
AcDbEntity
  8
0
370
    13
390
0
 62
     7
 48
0.415461
100
AcDbLine
 10
108.578918
 20
363.849884
 30
0.0
 11
108.578918
 21
380.468323
 31
0.0
210
0.0
220
0.0
230
1.0
  0
LINE
  5
548
100
AcDbEntity
  8
0
370
    13
390
0
 62
     7
 48
0.027499
100
AcDbLine
 10
109.678894
 20
397.086761
 30
0.0
 11
108.578918
 21
397.086761
 31
0.0
210
0.0
220
0.0
230
1.0
  0
LINE
  5
549
100
AcDbEntity
  8
0
370
    13
390
0
 62
     7
 48
0.415461
100
AcDbLine
 10
108.578918
 20
397.086761
 30
0.0
 11
108.578918
 21
380.468323
 31
0.0
210
0.0
220
0.0
230
1.0
  0
LINE
  5
54A
100
AcDbEntity
  8
0
370
    13
390
0
 62
     7
 48
0.027499
100
AcDbLine
 10
109.678894
 20
397.5867
 30
0.0
 11
108.578918
 21
397.5867
 31
0.0
210
0.0
220
0.0
230
1.0
  0
LINE
  5
54B
100
AcDbEntity
  8
0
370
    13
390
0
 62
     7
 48
0.012498
100
AcDbLine
 10
108.578918
 20
397.5867
 30
0.0
 11
108.578918
 21
397.086761
 31
0.0
210
0.0
220
0.0
230
1.0
  0
LINE
  5
54C
100
AcDbEntity
  8
0
370
    13
390
0
 62
     7
 48
0.021929
100
AcDbLine
 10
108.578918
 20
398.463867
 30
0.0
 11
108.578918
 21
397.5867
 31
0.0
210
0.0
220
0.0
230
1.0
  0
LINE
  5
54D
100
AcDbEntity
  8
0
370
    13
390
0
 62
     7
 48
0.005
100
AcDbLine
 10
108.378906
 20
363.849884
 30
0.0
 11
108.578918
 21
363.849884
 31
0.0
210
0.0
220
0.0
230
1.0
  0
LINE
  5
54E
100
AcDbEntity
  8
0
370
    13
390
0
 62
     7
 48
0.005
100
AcDbLine
 10
108.378906
 20
397.086761
 30
0.0
 11
108.578918
 21
397.086761
 31
0.0
210
0.0
220
0.0
230
1.0
  0
LINE
  5
54F
100
AcDbEntity
  8
0
370
    35
390
0
 62
     7
100
AcDbLine
 10
108.378906
 20
397.086761
 30
0.0
 11
108.378906
 21
363.849884
 31
0.0
210
0.0
220
0.0
230
1.0
  0
ELLIPSE
  5
550
100
AcDbEntity
  8
0
370
    13
390
0
 62
     7
100
AcDbEllipse
 10
108.578918
 20
398.263916
 30
0.0
 11
-0.20001220703125
 21
0.0
 31
0.0
210
0.0
220
0.0
230
1.0
 40
0.999848
 41
4.7123889803846897
 42
6.2831853071795871
  0
ELLIPSE
  5
551
100
AcDbEntity
  8
0
370
    13
390
0
 62
     7
100
AcDbEllipse
 10
108.578918
 20
397.386719
 30
0.0
 11
-0.20001220703125
 21
0.0
 31
0.0
210
0.0
220
0.0
230
1.0
 40
0.999848
 41
4.7123889803846897
 42
6.2831853071795862
  0
LINE
  5
552
100
AcDbEntity
  8
0
370
    35
390
0
 62
     7
 48
0.02193
100
AcDbLine
 10
108.378906
 20
398.263916
 30
0.0
 11
108.378906
 21
397.386719
 31
0.0
210
0.0
220
0.0
230
1.0
  0
LINE
  5
553
100
AcDbEntity
  8
0
370
    35
390
0
 62
     7
 48
0.007499
100
AcDbLine
 10
108.378906
 20
397.386719
 30
0.0
 11
108.378906
 21
397.086761
 31
0.0
210
0.0
220
0.0
230
1.0
  0
ELLIPSE
  5
554
100
AcDbEntity
  8
0
370
    13
390
0
 62
     7
100
AcDbEllipse
 10
108.578918
 20
363.549927
 30
0.0
 11
-0.20001220703125
 21
0.0
 31
0.0
210
0.0
220
0.0
230
1.0
 40
0.999848
 41
6.2831853071795871
 42
7.8539816339744837
  0
LINE
  5
555
100
AcDbEntity
  8
0
370
    35
390
0
 62
     7
 48
0.007499
100
AcDbLine
 10
108.378906
 20
363.849884
 30
0.0
 11
108.378906
 21
363.549927
 31
0.0
210
0.0
220
0.0
230
1.0
  0
ELLIPSE
  5
556
100
AcDbEntity
  8
0
370
    13
390
0
 62
     7
100
AcDbEllipse
 10
108.578918
 20
362.672729
 30
0.0
 11
-0.20001220703125
 21
0.0
 31
0.0
210
0.0
220
0.0
230
1.0
 40
0.999848
 41
6.2831853071795862
 42
7.8539816339744828
  0
LINE
  5
557
100
AcDbEntity
  8
0
370
    35
390
0
 62
     7
 48
0.02193
100
AcDbLine
 10
108.378906
 20
362.672729
 30
0.0
 11
108.378906
 21
363.549927
 31
0.0
210
0.0
220
0.0
230
1.0
  0
ARC
  5
558
100
AcDbEntity
  8
0
370
    35
390
0
 62
     7
100
AcDbCircle
 10
109.678894
 20
398.263916
 30
0.0
 40
0.2
210
0.0
220
0.0
230
1.0
100
AcDbArc
 50
360.0
 51
90.000003
  0
ARC
  5
559
100
AcDbEntity
  8
0
370
    35
390
0
 62
     7
100
AcDbCircle
 10
109.678894
 20
362.672729
 30
0.0
 40
0.2
210
0.0
220
0.0
230
1.0
100
AcDbArc
 50
269.999997
 51
0.0
  0
LINE
  5
55A
100
AcDbEntity
  8
0
370
    35
390
0
 62
     7
 48
0.027499
100
AcDbLine
 10
109.678894
 20
398.463928
 30
0.0
 11
108.578918
 21
398.463928
 31
0.0
210
0.0
220
0.0
230
1.0
  0
LINE
  5
55B
100
AcDbEntity
  8
0
370
    35
390
0
 62
     7
 48
0.027499
100
AcDbLine
 10
109.678894
 20
362.472717
 30
0.0
 11
108.578918
 21
362.472717
 31
0.0
210
0.0
220
0.0
230
1.0
  0
ARC
  5
55C
100
AcDbEntity
  8
0
370
    35
390
0
 62
     7
100
AcDbCircle
 10
108.578918
 20
398.263916
 30
0.0
 40
0.2
210
0.0
220
0.0
230
1.0
100
AcDbArc
 50
90.000003
 51
179.999995
  0
ARC
  5
55D
100
AcDbEntity
  8
0
370
    35
390
0
 62
     7
100
AcDbCircle
 10
108.578918
 20
362.672729
 30
0.0
 40
0.2
210
0.0
220
0.0
230
1.0
100
AcDbArc
 50
180.000005
 51
269.999997
  0
LINE
  5
55E
100
AcDbEntity
  8
0
370
    35
390
0
 62
     7
 48
0.000478
100
AcDbLine
 10
109.878906
 20
398.263916
 30
0.0
 11
109.89801
 21
398.263916
 31
0.0
210
0.0
220
0.0
230
1.0
  0
LINE
  5
55F
100
AcDbEntity
  8
0
370
    35
390
0
 62
     7
 48
0.02193
100
AcDbLine
 10
109.878906
 20
397.386719
 30
0.0
 11
109.878906
 21
398.263916
 31
0.0
210
0.0
220
0.0
230
1.0
  0
LINE
  5
560
100
AcDbEntity
  8
0
370
    13
390
0
 62
     7
 48
0.000478
100
AcDbLine
 10
109.878906
 20
397.386719
 30
0.0
 11
109.89801
 21
397.386719
 31
0.0
210
0.0
220
0.0
230
1.0
  0
LINE
  5
561
100
AcDbEntity
  8
0
370
    35
390
0
 62
     7
 48
0.007499
100
AcDbLine
 10
109.878906
 20
397.086761
 30
0.0
 11
109.878906
 21
397.386719
 31
0.0
210
0.0
220
0.0
230
1.0
  0
LINE
  5
562
100
AcDbEntity
  8
0
370
    13
390
0
 62
     7
 48
0.000478
100
AcDbLine
 10
109.878906
 20
397.086761
 30
0.0
 11
109.89801
 21
397.086761
 31
0.0
210
0.0
220
0.0
230
1.0
  0
LINE
  5
563
100
AcDbEntity
  8
0
370
    35
390
0
 62
     7
100
AcDbLine
 10
109.878906
 20
363.849884
 30
0.0
 11
109.878906
 21
397.086761
 31
0.0
210
0.0
220
0.0
230
1.0
  0
LINE
  5
564
100
AcDbEntity
  8
0
370
    13
390
0
 62
     7
 48
0.000478
100
AcDbLine
 10
109.878906
 20
363.849884
 30
0.0
 11
109.89801
 21
363.849884
 31
0.0
210
0.0
220
0.0
230
1.0
  0
LINE
  5
565
100
AcDbEntity
  8
0
370
    35
390
0
 62
     7
 48
0.0075
100
AcDbLine
 10
110.478882
 20
396.168335
 30
0.0
 11
110.478882
 21
396.468323
 31
0.0
210
0.0
220
0.0
230
1.0
  0
LINE
  5
566
100
AcDbEntity
  8
0
370
    35
390
0
 62
     7
 48
0.0075
100
AcDbLine
 10
110.478882
 20
364.468323
 30
0.0
 11
110.478882
 21
364.768311
 31
0.0
210
0.0
220
0.0
230
1.0
  0
LINE
  5
567
100
AcDbEntity
  8
0
370
    35
390
0
 62
     7
 48
0.007499
100
AcDbLine
 10
109.878906
 20
363.549927
 30
0.0
 11
109.878906
 21
363.849884
 31
0.0
210
0.0
220
0.0
230
1.0
  0
LINE
  5
568
100
AcDbEntity
  8
0
370
    13
390
0
 62
     7
 48
0.000478
100
AcDbLine
 10
109.878906
 20
363.549927
 30
0.0
 11
109.89801
 21
363.549927
 31
0.0
210
0.0
220
0.0
230
1.0
  0
LINE
  5
569
100
AcDbEntity
  8
0
370
    35
390
0
 62
     7
 48
0.02193
100
AcDbLine
 10
109.878906
 20
362.672729
 30
0.0
 11
109.878906
 21
363.549927
 31
0.0
210
0.0
220
0.0
230
1.0
  0
LINE
  5
56A
100
AcDbEntity
  8
0
370
    35
390
0
 62
     7
 48
0.000478
100
AcDbLine
 10
109.878906
 20
362.672729
 30
0.0
 11
109.89801
 21
362.672729
 31
0.0
210
0.0
220
0.0
230
1.0
  0
LINE
  5
56B
100
AcDbEntity
  8
0
370
    35
390
0
 62
     7
100
AcDbLine
 10
109.89801
 20
364.768311
 30
0.0
 11
109.89801
 21
396.168335
 31
0.0
210
0.0
220
0.0
230
1.0
  0
LINE
  5
56C
100
AcDbEntity
  8
0
370
    35
390
0
 62
     7
100
AcDbLine
 10
109.89801
 20
396.168335
 30
0.0
 11
569.89801
 21
396.168335
 31
0.0
210
0.0
220
0.0
230
1.0
  0
LINE
  5
56D
100
AcDbEntity
  8
0
370
    35
390
0
 62
     7
100
AcDbLine
 10
569.89801
 20
364.768311
 30
0.0
 11
569.89801
 21
396.168335
 31
0.0
210
0.0
220
0.0
230
1.0
  0
LINE
  5
56E
100
AcDbEntity
  8
0
370
    35
390
0
 62
     7
100
AcDbLine
 10
109.89801
 20
364.768311
 30
0.0
 11
569.89801
 21
364.768311
 31
0.0
210
0.0
220
0.0
230
1.0
  0
LINE
  5
56F
100
AcDbEntity
  8
0
370
    13
390
0
 62
     7
 48
0.005
100
AcDbLine
 10
570.098022
 20
397.086761
 30
0.0
 11
569.89801
 21
397.086761
 31
0.0
210
0.0
220
0.0
230
1.0
  0
LINE
  5
570
100
AcDbEntity
  8
0
370
    35
390
0
 62
     7
100
AcDbLine
 10
569.89801
 20
363.849884
 30
0.0
 11
569.89801
 21
397.086761
 31
0.0
210
0.0
220
0.0
230
1.0
  0
LINE
  5
571
100
AcDbEntity
  8
0
370
    13
390
0
 62
     7
 48
0.005
100
AcDbLine
 10
570.098022
 20
363.849884
 30
0.0
 11
569.89801
 21
363.849884
 31
0.0
210
0.0
220
0.0
230
1.0
  0
LINE
  5
572
100
AcDbEntity
  8
0
370
    13
390
0
 62
     7
 48
0.415461
100
AcDbLine
 10
570.098022
 20
363.849884
 30
0.0
 11
570.098022
 21
380.468323
 31
0.0
210
0.0
220
0.0
230
1.0
  0
LINE
  5
573
100
AcDbEntity
  8
0
370
    13
390
0
 62
     7
 48
0.415461
100
AcDbLine
 10
570.098022
 20
397.086761
 30
0.0
 11
570.098022
 21
380.468323
 31
0.0
210
0.0
220
0.0
230
1.0
  0
ELLIPSE
  5
574
100
AcDbEntity
  8
0
370
    13
390
0
 62
     7
100
AcDbEllipse
 10
570.098022
 20
362.672729
 30
0.0
 11
0.20001220703125
 21
0.0
 31
0.0
210
0.0
220
0.0
230
1.0
 40
0.999848
 41
3.1415926535897922
 42
4.7123889803846888
  0
ELLIPSE
  5
575
100
AcDbEntity
  8
0
370
    13
390
0
 62
     7
100
AcDbEllipse
 10
570.098022
 20
363.549927
 30
0.0
 11
0.20001220703125
 21
0.0
 31
0.0
210
0.0
220
0.0
230
1.0
 40
0.999848
 41
3.1415926535897927
 42
4.7123889803846888
  0
LINE
  5
576
100
AcDbEntity
  8
0
370
    35
390
0
 62
     7
 48
0.02193
100
AcDbLine
 10
569.89801
 20
362.672729
 30
0.0
 11
569.89801
 21
363.549927
 31
0.0
210
0.0
220
0.0
230
1.0
  0
LINE
  5
577
100
AcDbEntity
  8
0
370
    13
390
0
 62
     7
 48
0.021929
100
AcDbLine
 10
570.098022
 20
362.472778
 30
0.0
 11
570.098022
 21
363.349945
 31
0.0
210
0.0
220
0.0
230
1.0
  0
LINE
  5
578
100
AcDbEntity
  8
0
370
    35
390
0
 62
     7
 48
0.007499
100
AcDbLine
 10
569.89801
 20
363.549927
 30
0.0
 11
569.89801
 21
363.849884
 31
0.0
210
0.0
220
0.0
230
1.0
  0
LINE
  5
579
100
AcDbEntity
  8
0
370
    13
390
0
 62
     7
 48
0.012498
100
AcDbLine
 10
570.098022
 20
363.349945
 30
0.0
 11
570.098022
 21
363.849884
 31
0.0
210
0.0
220
0.0
230
1.0
  0
ELLIPSE
  5
57A
100
AcDbEntity
  8
0
370
    13
390
0
 62
     7
100
AcDbEllipse
 10
570.098022
 20
397.386719
 30
0.0
 11
0.20001220703125
 21
0.0
 31
0.0
210
0.0
220
0.0
230
1.0
 40
0.999848
 41
1.5707963267948957
 42
3.1415926535897922
  0
LINE
  5
57B
100
AcDbEntity
  8
0
370
    35
390
0
 62
     7
 48
0.007499
100
AcDbLine
 10
569.89801
 20
397.086761
 30
0.0
 11
569.89801
 21
397.386719
 31
0.0
210
0.0
220
0.0
230
1.0
  0
LINE
  5
57C
100
AcDbEntity
  8
0
370
    13
390
0
 62
     7
 48
0.012498
100
AcDbLine
 10
570.098022
 20
397.086761
 30
0.0
 11
570.098022
 21
397.5867
 31
0.0
210
0.0
220
0.0
230
1.0
  0
ELLIPSE
  5
57D
100
AcDbEntity
  8
0
370
    13
390
0
 62
     7
100
AcDbEllipse
 10
570.098022
 20
398.263916
 30
0.0
 11
0.20001220703125
 21
0.0
 31
0.0
210
0.0
220
0.0
230
1.0
 40
0.999848
 41
1.5707963267948959
 42
3.1415926535897922
  0
LINE
  5
57E
100
AcDbEntity
  8
0
370
    35
390
0
 62
     7
 48
0.02193
100
AcDbLine
 10
569.89801
 20
398.263916
 30
0.0
 11
569.89801
 21
397.386719
 31
0.0
210
0.0
220
0.0
230
1.0
  0
LINE
  5
57F
100
AcDbEntity
  8
0
370
    13
390
0
 62
     7
 48
0.021929
100
AcDbLine
 10
570.098022
 20
398.463867
 30
0.0
 11
570.098022
 21
397.5867
 31
0.0
210
0.0
220
0.0
230
1.0
  0
LINE
  5
580
100
AcDbEntity
  8
0
370
    13
390
0
 62
     7
 48
0.027499
100
AcDbLine
 10
570.098022
 20
362.472778
 30
0.0
 11
571.197998
 21
362.472778
 31
0.0
210
0.0
220
0.0
230
1.0
  0
LINE
  5
581
100
AcDbEntity
  8
0
370
    13
390
0
 62
     7
 48
0.027499
100
AcDbLine
 10
570.098022
 20
398.463867
 30
0.0
 11
571.197998
 21
398.463867
 31
0.0
210
0.0
220
0.0
230
1.0
  0
LINE
  5
582
100
AcDbEntity
  8
0
370
    13
390
0
 62
     7
 48
0.027499
100
AcDbLine
 10
570.098022
 20
397.5867
 30
0.0
 11
571.197998
 21
397.5867
 31
0.0
210
0.0
220
0.0
230
1.0
  0
LINE
  5
583
100
AcDbEntity
  8
0
370
    13
390
0
 62
     7
 48
0.021929
100
AcDbLine
 10
571.197998
 20
398.463867
 30
0.0
 11
571.197998
 21
397.5867
 31
0.0
210
0.0
220
0.0
230
1.0
  0
LINE
  5
584
100
AcDbEntity
  8
0
370
    13
390
0
 62
     7
 48
0.027499
100
AcDbLine
 10
570.098022
 20
397.086761
 30
0.0
 11
571.197998
 21
397.086761
 31
0.0
210
0.0
220
0.0
230
1.0
  0
LINE
  5
585
100
AcDbEntity
  8
0
370
    13
390
0
 62
     7
 48
0.012498
100
AcDbLine
 10
571.197998
 20
397.086761
 30
0.0
 11
571.197998
 21
397.5867
 31
0.0
210
0.0
220
0.0
230
1.0
  0
LINE
  5
586
100
AcDbEntity
  8
0
370
    13
390
0
 62
     7
 48
0.415461
100
AcDbLine
 10
571.197998
 20
397.086761
 30
0.0
 11
571.197998
 21
380.468323
 31
0.0
210
0.0
220
0.0
230
1.0
  0
LINE
  5
587
100
AcDbEntity
  8
0
370
    13
390
0
 62
     7
 48
0.027499
100
AcDbLine
 10
570.098022
 20
363.849884
 30
0.0
 11
571.197998
 21
363.849884
 31
0.0
210
0.0
220
0.0
230
1.0
  0
LINE
  5
588
100
AcDbEntity
  8
0
370
    13
390
0
 62
     7
 48
0.415461
100
AcDbLine
 10
571.197998
 20
363.849884
 30
0.0
 11
571.197998
 21
380.468323
 31
0.0
210
0.0
220
0.0
230
1.0
  0
LINE
  5
589
100
AcDbEntity
  8
0
370
    13
390
0
 62
     7
 48
0.027499
100
AcDbLine
 10
570.098022
 20
363.349945
 30
0.0
 11
571.197998
 21
363.349945
 31
0.0
210
0.0
220
0.0
230
1.0
  0
LINE
  5
58A
100
AcDbEntity
  8
0
370
    13
390
0
 62
     7
 48
0.012498
100
AcDbLine
 10
571.197998
 20
363.349945
 30
0.0
 11
571.197998
 21
363.849884
 31
0.0
210
0.0
220
0.0
230
1.0
  0
LINE
  5
58B
100
AcDbEntity
  8
0
370
    13
390
0
 62
     7
 48
0.021929
100
AcDbLine
 10
571.197998
 20
362.472778
 30
0.0
 11
571.197998
 21
363.349945
 31
0.0
210
0.0
220
0.0
230
1.0
  0
LINE
  5
58C
100
AcDbEntity
  8
0
370
    13
390
0
 62
     7
 48
0.005
100
AcDbLine
 10
571.39801
 20
397.086761
 30
0.0
 11
571.197998
 21
397.086761
 31
0.0
210
0.0
220
0.0
230
1.0
  0
LINE
  5
58D
100
AcDbEntity
  8
0
370
    13
390
0
 62
     7
 48
0.005
100
AcDbLine
 10
571.39801
 20
363.849884
 30
0.0
 11
571.197998
 21
363.849884
 31
0.0
210
0.0
220
0.0
230
1.0
  0
LINE
  5
58E
100
AcDbEntity
  8
0
370
    35
390
0
 62
     7
100
AcDbLine
 10
571.39801
 20
363.849884
 30
0.0
 11
571.39801
 21
397.086761
 31
0.0
210
0.0
220
0.0
230
1.0
  0
ELLIPSE
  5
58F
100
AcDbEntity
  8
0
370
    13
390
0
 62
     7
100
AcDbEllipse
 10
571.197998
 20
362.672729
 30
0.0
 11
0.20001220703125
 21
0.0
 31
0.0
210
0.0
220
0.0
230
1.0
 40
0.999848
 41
4.7123889803846888
 42
6.2831853071795853
  0
ELLIPSE
  5
590
100
AcDbEntity
  8
0
370
    13
390
0
 62
     7
100
AcDbEllipse
 10
571.197998
 20
363.549927
 30
0.0
 11
0.20001220703125
 21
0.0
 31
0.0
210
0.0
220
0.0
230
1.0
 40
0.999848
 41
4.7123889803846888
 42
6.2831853071795853
  0
LINE
  5
591
100
AcDbEntity
  8
0
370
    35
390
0
 62
     7
 48
0.02193
100
AcDbLine
 10
571.39801
 20
362.672729
 30
0.0
 11
571.39801
 21
363.549927
 31
0.0
210
0.0
220
0.0
230
1.0
  0
LINE
  5
592
100
AcDbEntity
  8
0
370
    35
390
0
 62
     7
 48
0.007499
100
AcDbLine
 10
571.39801
 20
363.549927
 30
0.0
 11
571.39801
 21
363.849884
 31
0.0
210
0.0
220
0.0
230
1.0
  0
ELLIPSE
  5
593
100
AcDbEntity
  8
0
370
    13
390
0
 62
     7
100
AcDbEllipse
 10
571.197998
 20
397.386719
 30
0.0
 11
0.20001220703125
 21
0.0
 31
0.0
210
0.0
220
0.0
230
1.0
 40
0.999848
 41
6.2831853071795853
 42
7.8539816339744819
  0
LINE
  5
594
100
AcDbEntity
  8
0
370
    35
390
0
 62
     7
 48
0.007499
100
AcDbLine
 10
571.39801
 20
397.086761
 30
0.0
 11
571.39801
 21
397.386719
 31
0.0
210
0.0
220
0.0
230
1.0
  0
ELLIPSE
  5
595
100
AcDbEntity
  8
0
370
    13
390
0
 62
     7
100
AcDbEllipse
 10
571.197998
 20
398.263916
 30
0.0
 11
0.20001220703125
 21
0.0
 31
0.0
210
0.0
220
0.0
230
1.0
 40
0.999848
 41
6.2831853071795853
 42
7.8539816339744828
  0
LINE
  5
596
100
AcDbEntity
  8
0
370
    35
390
0
 62
     7
 48
0.02193
100
AcDbLine
 10
571.39801
 20
398.263916
 30
0.0
 11
571.39801
 21
397.386719
 31
0.0
210
0.0
220
0.0
230
1.0
  0
ARC
  5
597
100
AcDbEntity
  8
0
370
    35
390
0
 62
     7
100
AcDbCircle
 10
570.098022
 20
362.672729
 30
0.0
 40
0.2
210
0.0
220
0.0
230
1.0
100
AcDbArc
 50
180.000005
 51
269.999997
  0
ARC
  5
598
100
AcDbEntity
  8
0
370
    35
390
0
 62
     7
100
AcDbCircle
 10
570.098022
 20
398.263916
 30
0.0
 40
0.2
210
0.0
220
0.0
230
1.0
100
AcDbArc
 50
90.000003
 51
179.999995
  0
LINE
  5
599
100
AcDbEntity
  8
0
370
    35
390
0
 62
     7
 48
0.027499
100
AcDbLine
 10
570.098022
 20
362.472717
 30
0.0
 11
571.197998
 21
362.472717
 31
0.0
210
0.0
220
0.0
230
1.0
  0
LINE
  5
59A
100
AcDbEntity
  8
0
370
    35
390
0
 62
     7
 48
0.027499
100
AcDbLine
 10
570.098022
 20
398.463928
 30
0.0
 11
571.197998
 21
398.463928
 31
0.0
210
0.0
220
0.0
230
1.0
  0
ARC
  5
59B
100
AcDbEntity
  8
0
370
    35
390
0
 62
     7
100
AcDbCircle
 10
571.197998
 20
362.672729
 30
0.0
 40
0.2
210
0.0
220
0.0
230
1.0
100
AcDbArc
 50
269.999997
 51
0.0
  0
ARC
  5
59C
100
AcDbEntity
  8
0
370
    35
390
0
 62
     7
100
AcDbCircle
 10
571.197998
 20
398.263916
 30
0.0
 40
0.2
210
0.0
220
0.0
230
1.0
100
AcDbArc
 50
360.0
 51
90.000003
  0
LINE
  5
59D
100
AcDbEntity
  8
0
370
    35
390
0
 62
     7
 48
0.02193
100
AcDbLine
 10
569.89801
 20
363.549927
 30
0.0
 11
569.89801
 21
362.672729
 31
0.0
210
0.0
220
0.0
230
1.0
  0
LINE
  5
59E
100
AcDbEntity
  8
0
370
    35
390
0
 62
     7
 48
0.007499
100
AcDbLine
 10
569.89801
 20
363.849884
 30
0.0
 11
569.89801
 21
363.549927
 31
0.0
210
0.0
220
0.0
230
1.0
  0
LINE
  5
59F
100
AcDbEntity
  8
0
370
    35
390
0
 62
     7
100
AcDbLine
 10
569.89801
 20
397.086761
 30
0.0
 11
569.89801
 21
363.849884
 31
0.0
210
0.0
220
0.0
230
1.0
  0
LINE
  5
5A0
100
AcDbEntity
  8
0
370
    35
390
0
 62
     7
 48
0.0075
100
AcDbLine
 10
569.297974
 20
364.768311
 30
0.0
 11
569.297974
 21
364.468323
 31
0.0
210
0.0
220
0.0
230
1.0
  0
LINE
  5
5A1
100
AcDbEntity
  8
0
370
    35
390
0
 62
     7
 48
0.0075
100
AcDbLine
 10
569.297974
 20
396.468323
 30
0.0
 11
569.297974
 21
396.168335
 31
0.0
210
0.0
220
0.0
230
1.0
  0
LINE
  5
5A2
100
AcDbEntity
  8
0
370
    35
390
0
 62
     7
 48
0.007499
100
AcDbLine
 10
569.89801
 20
397.386719
 30
0.0
 11
569.89801
 21
397.086761
 31
0.0
210
0.0
220
0.0
230
1.0
  0
LINE
  5
5A3
100
AcDbEntity
  8
0
370
    35
390
0
 62
     7
 48
0.02193
100
AcDbLine
 10
569.89801
 20
398.263916
 30
0.0
 11
569.89801
 21
397.386719
 31
0.0
210
0.0
220
0.0
230
1.0
  0
LINE
  5
5A4
100
AcDbEntity
  8
0
370
    35
390
0
 62
     7
 48
0.005001
100
AcDbLine
 10
108.128296
 20
362.892731
 30
0.0
 11
108.130066
 21
362.692719
 31
0.0
210
0.0
220
0.0
230
1.0
  0
LINE
  5
5A5
100
AcDbEntity
  8
0
370
    35
390
0
 62
     7
100
AcDbLine
 10
108.128296
 20
362.892731
 30
0.0
 11
108.128296
 21
398.092712
 31
0.0
210
0.0
220
0.0
230
1.0
  0
LINE
  5
5A6
100
AcDbEntity
  8
0
370
    35
390
0
 62
     7
 48
0.005001
100
AcDbLine
 10
108.128296
 20
398.092712
 30
0.0
 11
108.130066
 21
398.292725
 31
0.0
210
0.0
220
0.0
230
1.0
  0
LINE
  5
5A7
100
AcDbEntity
  8
0
370
    35
390
0
 62
     7
 48
0.002863
100
AcDbLine
 10
108.264404
 20
362.692719
 30
0.0
 11
108.378906
 21
362.692719
 31
0.0
210
0.0
220
0.0
230
1.0
  0
LINE
  5
5A8
100
AcDbEntity
  8
0
370
    35
390
0
 62
     7
 48
0.002914
100
AcDbLine
 10
108.264404
 20
398.292725
 30
0.0
 11
108.380981
 21
398.292725
 31
0.0
210
0.0
220
0.0
230
1.0
  0
LINE
  5
5A9
100
AcDbEntity
  8
0
370
    35
390
0
 62
     7
100
AcDbLine
 10
108.264404
 20
398.292725
 30
0.0
 11
108.264404
 21
362.692719
 31
0.0
210
0.0
220
0.0
230
1.0
  0
LINE
  5
5AA
100
AcDbEntity
  8
0
370
    35
390
0
 62
     7
 48
0.003358
100
AcDbLine
 10
108.130066
 20
362.692719
 30
0.0
 11
108.264404
 21
362.692719
 31
0.0
210
0.0
220
0.0
230
1.0
  0
LINE
  5
5AB
100
AcDbEntity
  8
0
370
    35
390
0
 62
     7
 48
0.003358
100
AcDbLine
 10
108.130066
 20
398.292725
 30
0.0
 11
108.264404
 21
398.292725
 31
0.0
210
0.0
220
0.0
230
1.0
  0
LINE
  5
5AC
100
AcDbEntity
  8
0
370
    35
390
0
 62
     7
 48
0.005001
100
AcDbLine
 10
571.505066
 20
398.092712
 30
0.0
 11
571.503296
 21
398.292725
 31
0.0
210
0.0
220
0.0
230
1.0
  0
LINE
  5
5AD
100
AcDbEntity
  8
0
370
    35
390
0
 62
     7
100
AcDbLine
 10
571.505066
 20
398.092712
 30
0.0
 11
571.505066
 21
362.892731
 31
0.0
210
0.0
220
0.0
230
1.0
  0
LINE
  5
5AE
100
AcDbEntity
  8
0
370
    35
390
0
 62
     7
 48
0.005001
100
AcDbLine
 10
571.505066
 20
362.892731
 30
0.0
 11
571.503296
 21
362.692719
 31
0.0
210
0.0
220
0.0
230
1.0
  0
LINE
  5
5AF
100
AcDbEntity
  8
0
370
    35
390
0
 62
     7
 48
0.002684
100
AcDbLine
 10
571.503296
 20
398.292725
 30
0.0
 11
571.395935
 21
398.292725
 31
0.0
210
0.0
220
0.0
230
1.0
  0
LINE
  5
5B0
100
AcDbEntity
  8
0
370
    35
390
0
 62
     7
 48
0.002632
100
AcDbLine
 10
571.503296
 20
362.692719
 30
0.0
 11
571.39801
 21
362.692719
 31
0.0
210
0.0
220
0.0
230
1.0
  0
LINE
  5
5B1
100
AcDbEntity
  8
0
370
    35
390
0
 62
     7
 48
0.000478
100
AcDbLine
 10
109.878906
 20
398.292725
 30
0.0
 11
109.89801
 21
398.292725
 31
0.0
210
0.0
220
0.0
230
1.0
  0
LINE
  5
5B2
100
AcDbEntity
  8
0
370
    35
390
0
 62
     7
 48
0.00072
100
AcDbLine
 10
109.878906
 20
398.292725
 30
0.0
 11
109.878906
 21
398.263916
 31
0.0
210
0.0
220
0.0
230
1.0
  0
LINE
  5
5B3
100
AcDbEntity
  8
0
370
    35
390
0
 62
     7
 48
0.01223
100
AcDbLine
 10
-29.41687
 20
94.939102
 30
0.0
 11
-28.965698
 21
95.128204
 31
0.0
210
0.0
220
0.0
230
1.0
  0
ELLIPSE
  5
5B4
100
AcDbEntity
  8
0
370
    35
390
0
 62
     7
100
AcDbEllipse
 10
-20.840973
 20
48.360779
 30
0.0
 11
0.13739013671875
 21
0.4807567596435547
 31
0.0
210
0.0
220
0.0
230
1.0
 40
0.767754
 41
2.1394876201765989
 42
3.1417046608238302
  0
LINE
  5
5B5
100
AcDbEntity
  8
0
370
    35
390
0
 62
     7
100
AcDbLine
 10
-29.571228
 20
94.621696
 30
0.0
 11
-21.225952
 21
48.19075
 31
0.0
210
0.0
220
0.0
230
1.0
  0
ELLIPSE
  5
5B6
100
AcDbEntity
  8
0
370
    35
390
0
 62
     7
100
AcDbEllipse
 10
-29.378723
 20
94.706711
 30
0.0
 11
0.068695068359375
 21
0.2403783798217773
 31
0.0
210
0.0
220
0.0
230
1.0
 40
0.767754
 41
0.5512380008617989
 42
2.1394876201766273
  0
ELLIPSE
  5
5B7
100
AcDbEntity
  8
0
370
    35
390
0
 62
     7
100
AcDbEllipse
 10
262.558136
 20
-32.621452
 30
0.0
 11
-0.13739013671875
 21
-0.4807567596435547
 31
0.0
210
0.0
220
0.0
230
1.0
 40
0.767754
 41
5.2810802737664195
 42
6.2832973144136117
  0
ELLIPSE
  5
5B8
100
AcDbEntity
  8
0
370
    35
390
0
 62
     7
100
AcDbEllipse
 10
262.558136
 20
-32.621452
 30
0.0
 11
-0.13739013671875
 21
-0.4807567596435547
 31
0.0
210
0.0
220
0.0
230
1.0
 40
0.767754
 41
0.0001120072340255
 42
0.1581560856120939
  0
LINE
  5
5B9
100
AcDbEntity
  8
0
370
    13
390
0
 62
     7
100
AcDbLine
 10
262.173157
 20
-32.791481
 30
0.0
 11
-21.225952
 21
48.19075
 31
0.0
210
0.0
220
0.0
230
1.0
  0
LINE
  5
5BA
100
AcDbEntity
  8
0
370
    13
390
0
 62
     7
100
AcDbLine
 10
253.827881
 20
13.639469
 30
0.0
 11
-29.571228
 21
94.621696
 31
0.0
210
0.0
220
0.0
230
1.0
  0
LINE
  5
5BB
100
AcDbEntity
  8
0
370
    35
390
0
 62
     7
100
AcDbLine
 10
253.827881
 20
13.639469
 30
0.0
 11
262.173157
 21
-32.791481
 31
0.0
210
0.0
220
0.0
230
1.0
  0
LINE
  5
5BC
100
AcDbEntity
  8
0
370
    35
390
0
 62
     7
 48
0.01223
100
AcDbLine
 10
253.982239
 20
13.956877
 30
0.0
 11
254.433411
 21
14.145979
 31
0.0
210
0.0
220
0.0
230
1.0
  0
ELLIPSE
  5
5BD
100
AcDbEntity
  8
0
370
    35
390
0
 62
     7
100
AcDbEllipse
 10
254.020386
 20
13.724483
 30
0.0
 11
0.068695068359375
 21
0.2403783798217773
 31
0.0
210
0.0
220
0.0
230
1.0
 40
0.767754
 41
0.5512380008617989
 42
2.1394876201766273
  0
LINE
  5
5BE
100
AcDbEntity
  8
0
370
    13
390
0
 62
     7
100
AcDbLine
 10
253.982239
 20
13.956877
 30
0.0
 11
-29.41687
 21
94.939102
 31
0.0
210
0.0
220
0.0
230
1.0
  0
LINE
  5
5BF
100
AcDbEntity
  8
0
370
    35
390
0
 62
     7
100
AcDbLine
 10
-20.978302
 20
47.880013
 30
0.0
 11
262.420776
 21
-33.102219
 31
0.0
210
0.0
220
0.0
230
1.0
  0
ELLIPSE
  5
5C0
100
AcDbEntity
  8
0
370
    13
390
0
 62
     7
100
AcDbEllipse
 10
-29.521362
 20
94.791763
 30
0.0
 11
-0.077301025390625
 21
0.1844539642333984
 31
0.0
210
0.0
220
0.0
230
1.0
 40
0.545836
 41
5.1690187701764039
 42
5.871110890839164
  0
LINE
  5
5C1
100
AcDbEntity
  8
0
370
    13
390
0
 62
     7
 48
0.01223
100
AcDbLine
 10
-29.100677
 20
95.166779
 30
0.0
 11
-29.551849
 21
94.977676
 31
0.0
210
0.0
220
0.0
230
1.0
  0
ELLIPSE
  5
5C2
100
AcDbEntity
  8
0
370
    13
390
0
 62
     7
100
AcDbEllipse
 10
-29.552216
 20
94.728279
 30
0.0
 11
-0.19683837890625
 21
-0.0353803634643555
 31
0.0
210
0.0
220
0.0
230
1.0
 40
0.34506
 41
0.6128799669481453
 42
1.3921545643193074
  0
ELLIPSE
  5
5C3
100
AcDbEntity
  8
0
370
    13
390
0
 62
     7
100
AcDbEllipse
 10
-29.513733
 20
94.745285
 30
0.0
 11
0.068695068359375
 21
0.2403783798217773
 31
0.0
210
0.0
220
0.0
230
1.0
 40
0.767754
 41
0.5512380008617988
 42
2.1394876201766269
  0
ELLIPSE
  5
5C4
100
AcDbEntity
  8
0
370
    13
390
0
 62
     7
100
AcDbEllipse
 10
-21.20697
 20
48.297333
 30
0.0
 11
-0.19683837890625
 21
-0.0353803634643555
 31
0.0
210
0.0
220
0.0
230
1.0
 40
0.34506
 41
0.6128799669486564
 42
1.3818894969302131
  0
LINE
  5
5C5
100
AcDbEntity
  8
0
370
    13
390
0
 62
     7
100
AcDbLine
 10
-29.706207
 20
94.660271
 30
0.0
 11
-21.360962
 21
48.229324
 31
0.0
210
0.0
220
0.0
230
1.0
  0
ELLIPSE
  5
5C6
100
AcDbEntity
  8
0
370
    13
390
0
 62
     7
100
AcDbEllipse
 10
-20.975983
 20
48.399353
 30
0.0
 11
0.13739013671875
 21
0.4807567596435547
 31
0.0
210
0.0
220
0.0
230
1.0
 40
0.767754
 41
2.1394876201766548
 42
3.1417046608238333
  0
LINE
  5
5C7
100
AcDbEntity
  8
0
370
    13
390
0
 62
     7
 48
0.017621
100
AcDbLine
 10
-29.551849
 20
94.977676
 30
0.0
 11
-30.229553
 21
95.171333
 31
0.0
210
0.0
220
0.0
230
1.0
  0
ELLIPSE
  5
5C8
100
AcDbEntity
  8
0
370
    13
390
0
 62
     7
100
AcDbEllipse
 10
-30.191406
 20
94.938942
 30
0.0
 11
0.068695068359375
 21
0.2403783798217773
 31
0.0
210
0.0
220
0.0
230
1.0
 40
0.767754
 41
0.5512380008617988
 42
2.1394876201766269
  0
LINE
  5
5C9
100
AcDbEntity
  8
0
370
    13
390
0
 62
     7
 48
0.017621
100
AcDbLine
 10
-29.706207
 20
94.660271
 30
0.0
 11
-30.383911
 21
94.85392
 31
0.0
210
0.0
220
0.0
230
1.0
  0
LINE
  5
5CA
100
AcDbEntity
  8
0
370
    13
390
0
 62
     7
 48
0.012253
100
AcDbLine
 10
-29.777527
 20
95.360794
 30
0.0
 11
-30.229553
 21
95.171333
 31
0.0
210
0.0
220
0.0
230
1.0
  0
LINE
  5
5CB
100
AcDbEntity
  8
0
370
    13
390
0
 62
     7
 48
0.017621
100
AcDbLine
 10
-21.360962
 20
48.229324
 30
0.0
 11
-22.038666
 21
48.422974
 31
0.0
210
0.0
220
0.0
230
1.0
  0
ELLIPSE
  5
5CC
100
AcDbEntity
  8
0
370
    13
390
0
 62
     7
100
AcDbEllipse
 10
-21.653656
 20
48.59301
 30
0.0
 11
0.13739013671875
 21
0.4807567596435547
 31
0.0
210
0.0
220
0.0
230
1.0
 40
0.767754
 41
2.1394876201766548
 42
3.1417046608238333
  0
LINE
  5
5CD
100
AcDbEntity
  8
0
370
    13
390
0
 62
     7
100
AcDbLine
 10
-30.383911
 20
94.85392
 30
0.0
 11
-22.038666
 21
48.422974
 31
0.0
210
0.0
220
0.0
230
1.0
  0
ELLIPSE
  5
5CE
100
AcDbEntity
  8
0
370
    13
390
0
 62
     7
100
AcDbEllipse
 10
-30.199036
 20
94.98542
 30
0.0
 11
-0.077301025390625
 21
0.1844539642333984
 31
0.0
210
0.0
220
0.0
230
1.0
 40
0.545836
 41
5.8711108908344043
 42
6.2832756555575742
  0
ELLIPSE
  5
5CF
100
AcDbEntity
  8
0
370
    13
390
0
 62
     7
100
AcDbEllipse
 10
-30.229919
 20
94.921936
 30
0.0
 11
-0.19683837890625
 21
-0.0353803634643555
 31
0.0
210
0.0
220
0.0
230
1.0
 40
0.34506
 41
6.2830831320367144
 42
6.8960652741277313
  0
ELLIPSE
  5
5D0
100
AcDbEntity
  8
0
370
    13
390
0
 62
     7
100
AcDbEllipse
 10
-21.884644
 20
48.49099
 30
0.0
 11
-0.19683837890625
 21
-0.0353803634643555
 31
0.0
210
0.0
220
0.0
230
1.0
 40
0.34506
 41
6.2830831320367055
 42
6.8960652741277224
  0
ARC
  5
5D1
100
AcDbEntity
  8
0
370
    35
390
0
 62
     7
100
AcDbCircle
 10
-21.010193
 20
48.278984
 30
0.0
 40
0.374851
210
0.0
220
0.0
230
1.0
100
AcDbArc
 50
254.035188
 51
265.487326
  0
LINE
  5
5D2
100
AcDbEntity
  8
0
370
    35
390
0
 62
     7
 48
0.01762
100
AcDbLine
 10
-21.113312
 20
47.918587
 30
0.0
 11
-21.790985
 21
48.112236
 31
0.0
210
0.0
220
0.0
230
1.0
  0
LINE
  5
5D3
100
AcDbEntity
  8
0
370
    35
390
0
 62
     7
 48
0.012824
100
AcDbLine
 10
-29.803284
 20
95.368149
 30
0.0
 11
-30.276367
 21
95.169868
 31
0.0
210
0.0
220
0.0
230
1.0
  0
ARC
  5
5D4
100
AcDbEntity
  8
0
370
    35
390
0
 62
     7
100
AcDbCircle
 10
-30.171661
 20
94.933304
 30
0.0
 40
0.259126
210
0.0
220
0.0
230
1.0
100
AcDbArc
 50
113.870995
 51
190.383262
  0
LINE
  5
5D5
100
AcDbEntity
  8
0
370
    35
390
0
 62
     7
100
AcDbLine
 10
-30.426758
 20
94.886566
 30
0.0
 11
-22.081512
 21
48.455612
 31
0.0
210
0.0
220
0.0
230
1.0
  0
POLYLINE
  5
5D6
100
AcDbEntity
  8
0
370
    35
390
0
 62
     7
100
AcDb2dPolyline
 66
     1
 10
0.0
 20
0.0
 30
0.0
 71
     5
  0
VERTEX
  5
5D7
100
AcDbEntity
  8
0
370
     0
390
0
100
AcDbVertex
100
AcDb2dVertex
 10
-21.790985
 20
48.112236
 30
0.0
  0
VERTEX
  5
5D8
100
AcDbEntity
  8
0
370
     0
390
0
100
AcDbVertex
100
AcDb2dVertex
 10
-21.919189
 20
48.177132
 30
0.0
  0
VERTEX
  5
5D9
100
AcDbEntity
  8
0
370
     0
390
0
100
AcDbVertex
100
AcDb2dVertex
 10
-22.010193
 20
48.2752
 30
0.0
  0
VERTEX
  5
5DA
100
AcDbEntity
  8
0
370
     0
390
0
100
AcDbVertex
100
AcDb2dVertex
 10
-22.066132
 20
48.39296
 30
0.0
  0
VERTEX
  5
5DB
100
AcDbEntity
  8
0
370
     0
390
0
100
AcDbVertex
100
AcDb2dVertex
 10
-22.081512
 20
48.455612
 30
0.0
  0
SEQEND
  5
5DC
100
AcDbEntity
  8
0
370
     0
390
0
  0
ELLIPSE
  5
5DD
100
AcDbEntity
  8
0
370
    13
390
0
 62
     7
100
AcDbEllipse
 10
254.135971
 20
13.735753
 30
0.0
 11
0.077301025390625
 21
-0.1844539642333984
 31
0.0
210
0.0
220
0.0
230
1.0
 40
0.545836
 41
2.7295182372505162
 42
3.1416830019736852
  0
LINE
  5
5DE
100
AcDbEntity
  8
0
370
    13
390
0
 62
     7
 48
0.01223
100
AcDbLine
 10
254.556625
 20
14.110769
 30
0.0
 11
254.105453
 21
13.921667
 31
0.0
210
0.0
220
0.0
230
1.0
  0
ELLIPSE
  5
5DF
100
AcDbEntity
  8
0
370
    13
390
0
 62
     7
100
AcDbEllipse
 10
262.450348
 20
-32.758675
 30
0.0
 11
0.19683837890625
 21
0.0353803634643555
 31
0.0
210
0.0
220
0.0
230
1.0
 40
0.34506
 41
3.1414904784470385
 42
3.7544726205379391
  0
ELLIPSE
  5
5E0
100
AcDbEntity
  8
0
370
    13
390
0
 62
     7
100
AcDbEllipse
 10
262.681335
 20
-32.656662
 30
0.0
 11
-0.13739013671875
 21
-0.4807567596435547
 31
0.0
210
0.0
220
0.0
230
1.0
 40
0.767754
 41
5.2810802737664195
 42
6.2832973144136055
  0
ELLIPSE
  5
5E1
100
AcDbEntity
  8
0
370
    13
390
0
 62
     7
100
AcDbEllipse
 10
254.105103
 20
13.672272
 30
0.0
 11
0.19683837890625
 21
0.0353803634643555
 31
0.0
210
0.0
220
0.0
230
1.0
 40
0.34506
 41
3.141490478448234
 42
3.7544726205391359
  0
LINE
  5
5E2
100
AcDbEntity
  8
0
370
    13
390
0
 62
     7
100
AcDbLine
 10
253.951096
 20
13.604259
 30
0.0
 11
262.296356
 21
-32.826691
 31
0.0
210
0.0
220
0.0
230
1.0
  0
ELLIPSE
  5
5E3
100
AcDbEntity
  8
0
370
    13
390
0
 62
     7
100
AcDbEllipse
 10
254.1436
 20
13.689274
 30
0.0
 11
-0.068695068359375
 21
-0.2403783798217773
 31
0.0
210
0.0
220
0.0
230
1.0
 40
0.767754
 41
3.6928306544515777
 42
5.281080273766392
  0
LINE
  5
5E4
100
AcDbEntity
  8
0
370
    13
390
0
 62
     7
 48
0.0141
100
AcDbLine
 10
281.667114
 20
25.378092
 30
0.0
 11
282.209412
 21
25.223133
 31
0.0
210
0.0
220
0.0
230
1.0
  0
ELLIPSE
  5
5E5
100
AcDbEntity
  8
0
370
    13
390
0
 62
     7
100
AcDbEllipse
 10
282.247559
 20
24.99074
 30
0.0
 11
-0.068695068359375
 21
-0.2403783798217773
 31
0.0
210
0.0
220
0.0
230
1.0
 40
0.767754
 41
3.1417180554265953
 42
3.692830654451563
  0
LINE
  5
5E6
100
AcDbEntity
  8
0
370
    13
390
0
 62
     7
 48
0.371723
100
AcDbLine
 10
268.496277
 20
19.475574
 30
0.0
 11
282.209412
 21
25.223133
 31
0.0
210
0.0
220
0.0
230
1.0
  0
LINE
  5
5E7
100
AcDbEntity
  8
0
370
    13
390
0
 62
     7
 48
0.01762
100
AcDbLine
 10
254.105453
 20
13.921667
 30
0.0
 11
254.783142
 21
13.728014
 31
0.0
210
0.0
220
0.0
230
1.0
  0
LINE
  5
5E8
100
AcDbEntity
  8
0
370
    13
390
0
 62
     7
 48
0.371723
100
AcDbLine
 10
268.496277
 20
19.475574
 30
0.0
 11
254.783142
 21
13.728014
 31
0.0
210
0.0
220
0.0
230
1.0
  0
LINE
  5
5E9
100
AcDbEntity
  8
0
370
    13
390
0
 62
     7
 48
0.017621
100
AcDbLine
 10
253.951096
 20
13.604259
 30
0.0
 11
254.628799
 21
13.410606
 31
0.0
210
0.0
220
0.0
230
1.0
  0
ELLIPSE
  5
5EA
100
AcDbEntity
  8
0
370
    13
390
0
 62
     7
100
AcDbEllipse
 10
254.821289
 20
13.495621
 30
0.0
 11
-0.068695068359375
 21
-0.2403783798217773
 31
0.0
210
0.0
220
0.0
230
1.0
 40
0.767754
 41
3.6928306544515777
 42
5.281080273766392
  0
LINE
  5
5EB
100
AcDbEntity
  8
0
370
    13
390
0
 62
     7
 48
0.017621
100
AcDbLine
 10
262.296356
 20
-32.826691
 30
0.0
 11
262.97406
 21
-33.02034
 31
0.0
210
0.0
220
0.0
230
1.0
  0
LINE
  5
5EC
100
AcDbEntity
  8
0
370
    13
390
0
 62
     7
100
AcDbLine
 10
254.628799
 20
13.410606
 30
0.0
 11
262.97406
 21
-33.02034
 31
0.0
210
0.0
220
0.0
230
1.0
  0
ELLIPSE
  5
5ED
100
AcDbEntity
  8
0
370
    13
390
0
 62
     7
100
AcDbEllipse
 10
263.359039
 20
-32.850311
 30
0.0
 11
-0.13739013671875
 21
-0.4807567596435547
 31
0.0
210
0.0
220
0.0
230
1.0
 40
0.767754
 41
5.2810802737664195
 42
6.2832973144136259
  0
ELLIPSE
  5
5EE
100
AcDbEntity
  8
0
370
    13
390
0
 62
     7
100
AcDbEllipse
 10
263.404816
 20
-33.129181
 30
0.0
 11
-0.077301025390625
 21
0.1844539642333984
 31
0.0
210
0.0
220
0.0
230
1.0
 40
0.545836
 41
3.1416830019677757
 42
4.3003145640395175
  0
ELLIPSE
  5
5EF
100
AcDbEntity
  8
0
370
    13
390
0
 62
     7
100
AcDbEllipse
 10
289.08902
 20
-22.364206
 30
0.0
 11
-0.077301025390625
 21
0.1844539642333984
 31
0.0
210
0.0
220
0.0
230
1.0
 40
0.545836
 41
3.141683001967805
 42
4.3003145640395175
  0
LINE
  5
5F0
100
AcDbEntity
  8
0
370
    13
390
0
 62
     7
100
AcDbLine
 10
289.212219
 20
-22.399416
 30
0.0
 11
263.528015
 21
-33.164391
 31
0.0
210
0.0
220
0.0
230
1.0
  0
ELLIPSE
  5
5F1
100
AcDbEntity
  8
0
370
    13
390
0
 62
     7
100
AcDbEllipse
 10
282.239929
 20
25.03722
 30
0.0
 11
0.077301025390625
 21
-0.1844539642333984
 31
0.0
210
0.0
220
0.0
230
1.0
 40
0.545836
 41
1.1587219104497326
 42
2.7295182372446294
  0
ELLIPSE
  5
5F2
100
AcDbEntity
  8
0
370
    13
390
0
 62
     7
100
AcDbEllipse
 10
254.81366
 20
13.5421
 30
0.0
 11
0.077301025390625
 21
-0.1844539642333984
 31
0.0
210
0.0
220
0.0
230
1.0
 40
0.545836
 41
1.1587219104497239
 42
2.7295182372446205
  0
LINE
  5
5F3
100
AcDbEntity
  8
0
370
    13
390
0
 62
     7
100
AcDbLine
 10
282.363129
 20
25.00201
 30
0.0
 11
254.936874
 21
13.50689
 31
0.0
210
0.0
220
0.0
230
1.0
  0
ELLIPSE
  5
5F4
100
AcDbEntity
  8
0
370
    13
390
0
 62
     7
100
AcDbEllipse
 10
282.286316
 20
25.006121
 30
0.0
 11
-0.19781494140625
 21
-0.0294198989868164
 31
0.0
210
0.0
220
0.0
230
1.0
 40
0.326008
 41
2.1938117998023943
 42
3.1415926762654074
  0
ELLIPSE
  5
5F5
100
AcDbEntity
  8
0
370
    13
390
0
 62
     7
100
AcDbEllipse
 10
282.370758
 20
24.95553
 30
0.0
 11
-0.01373291015625
 21
-0.0480756759643555
 31
0.0
210
0.0
220
0.0
230
1.0
 40
0.767754
 41
2.1045810351369609
 42
3.6928306544548462
  0
ELLIPSE
  5
5F6
100
AcDbEntity
  8
0
370
    13
390
0
 62
     7
100
AcDbEllipse
 10
289.275848
 20
-21.99305
 30
0.0
 11
-0.19781494140625
 21
-0.0294198989868164
 31
0.0
210
0.0
220
0.0
230
1.0
 40
0.326008
 41
2.1938117998024018
 42
3.1415926762654043
  0
LINE
  5
5F7
100
AcDbEntity
  8
0
370
    13
390
0
 62
     7
100
AcDbLine
 10
282.409515
 20
24.970911
 30
0.0
 11
289.399048
 21
-22.028259
 31
0.0
210
0.0
220
0.0
230
1.0
  0
ELLIPSE
  5
5F8
100
AcDbEntity
  8
0
370
    13
390
0
 62
     7
100
AcDbEllipse
 10
289.166473
 20
-22.120544
 30
0.0
 11
-0.082427978515625
 21
-0.2884540557861328
 31
0.0
210
0.0
220
0.0
230
1.0
 40
0.767754
 41
0.5512380008615123
 42
2.1045810351375804
  0
ELLIPSE
  5
5F9
100
AcDbEntity
  8
0
370
    13
390
0
 62
     7
100
AcDbEllipse
 10
263.128052
 20
-32.952332
 30
0.0
 11
0.19683837890625
 21
0.0353803634643555
 31
0.0
210
0.0
220
0.0
230
1.0
 40
0.34506
 41
3.7544726205379377
 42
5.3252689473328338
  0
ELLIPSE
  5
5FA
100
AcDbEntity
  8
0
370
    13
390
0
 62
     7
100
AcDbEllipse
 10
263.482239
 20
-32.885521
 30
0.0
 11
-0.082427978515625
 21
-0.2884540557861328
 31
0.0
210
0.0
220
0.0
230
1.0
 40
0.767754
 41
5.2810802737676195
 42
6.8344233080405186
  0
ELLIPSE
  5
5FB
100
AcDbEntity
  8
0
370
    13
390
0
 62
     7
100
AcDbEllipse
 10
254.782791
 20
13.478619
 30
0.0
 11
0.19683837890625
 21
0.0353803634643555
 31
0.0
210
0.0
220
0.0
230
1.0
 40
0.34506
 41
3.7544726205379426
 42
5.3252689473328392
  0
LINE
  5
5FC
100
AcDbEntity
  8
0
370
    13
390
0
 62
     7
100
AcDbLine
 10
254.906006
 20
13.443409
 30
0.0
 11
263.251282
 21
-32.987541
 31
0.0
210
0.0
220
0.0
230
1.0
  0
ELLIPSE
  5
5FD
100
AcDbEntity
  8
0
370
    13
390
0
 62
     7
100
AcDbEllipse
 10
254.944504
 20
13.460411
 30
0.0
 11
-0.01373291015625
 21
-0.0480756759643555
 31
0.0
210
0.0
220
0.0
230
1.0
 40
0.767754
 41
3.6928306544475276
 42
5.2810802737622273
  0
LINE
  5
5FE
100
AcDbEntity
  8
0
370
    35
390
0
 62
     7
 48
0.012801
100
AcDbLine
 10
254.058655
 20
13.920203
 30
0.0
 11
254.530884
 21
14.118128
 31
0.0
210
0.0
220
0.0
230
1.0
  0
POLYLINE
  5
5FF
100
AcDbEntity
  8
0
370
    35
390
0
 62
     7
100
AcDb2dPolyline
 66
     1
 10
0.0
 20
0.0
 30
0.0
 71
     5
  0
VERTEX
  5
600
100
AcDbEntity
  8
0
370
     0
390
0
100
AcDbVertex
100
AcDb2dVertex
 10
262.25351
 20
-32.794052
 30
0.0
  0
VERTEX
  5
601
100
AcDbEntity
  8
0
370
     0
390
0
100
AcDbVertex
100
AcDb2dVertex
 10
262.292542
 20
-32.917244
 30
0.0
  0
VERTEX
  5
602
100
AcDbEntity
  8
0
370
     0
390
0
100
AcDbVertex
100
AcDb2dVertex
 10
262.365967
 20
-33.026855
 30
0.0
  0
VERTEX
  5
603
100
AcDbEntity
  8
0
370
     0
390
0
100
AcDbVertex
100
AcDb2dVertex
 10
262.473602
 20
-33.109406
 30
0.0
  0
VERTEX
  5
604
100
AcDbEntity
  8
0
370
     0
390
0
100
AcDbVertex
100
AcDb2dVertex
 10
262.544006
 20
-33.137428
 30
0.0
  0
SEQEND
  5
605
100
AcDbEntity
  8
0
370
     0
390
0
  0
LINE
  5
606
100
AcDbEntity
  8
0
370
    35
390
0
 62
     7
100
AcDbLine
 10
253.908249
 20
13.636898
 30
0.0
 11
262.25351
 21
-32.794052
 31
0.0
210
0.0
220
0.0
230
1.0
  0
ARC
  5
607
100
AcDbEntity
  8
0
370
    35
390
0
 62
     7
100
AcDbCircle
 10
254.16333
 20
13.683639
 30
0.0
 40
0.259126
210
0.0
220
0.0
230
1.0
100
AcDbArc
 50
113.870995
 51
190.383262
  0
LINE
  5
608
100
AcDbEntity
  8
0
370
    35
390
0
 62
     7
 48
0.017049
100
AcDbLine
 10
281.660492
 20
25.418499
 30
0.0
 11
282.316223
 21
25.231125
 31
0.0
210
0.0
220
0.0
230
1.0
  0
LINE
  5
609
100
AcDbEntity
  8
0
370
    35
390
0
 62
     7
 48
0.017621
100
AcDbLine
 10
262.544006
 20
-33.137428
 30
0.0
 11
263.22171
 21
-33.331085
 31
0.0
210
0.0
220
0.0
230
1.0
  0
LINE
  5
60A
100
AcDbEntity
  8
0
370
    35
390
0
 62
     7
100
AcDbLine
 10
263.482117
 20
-33.313637
 30
0.0
 11
289.166321
 21
-22.548656
 31
0.0
210
0.0
220
0.0
230
1.0
  0
ARC
  5
60B
100
AcDbEntity
  8
0
370
    35
390
0
 62
     7
100
AcDbCircle
 10
282.249146
 20
25.004181
 30
0.0
 40
0.236778
210
0.0
220
0.0
230
1.0
100
AcDbArc
 50
7.602087
 51
73.542791
  0
LINE
  5
60C
100
AcDbEntity
  8
0
370
    35
390
0
 62
     7
100
AcDbLine
 10
282.484131
 20
25.035542
 30
0.0
 11
289.473663
 21
-21.963631
 31
0.0
210
0.0
220
0.0
230
1.0
  0
POLYLINE
  5
60D
100
AcDbEntity
  8
0
370
    35
390
0
 62
     7
100
AcDb2dPolyline
 66
     1
 10
0.0
 20
0.0
 30
0.0
 71
     5
  0
VERTEX
  5
60E
100
AcDbEntity
  8
0
370
     0
390
0
100
AcDbVertex
100
AcDb2dVertex
 10
289.166321
 20
-22.548656
 30
0.0
  0
VERTEX
  5
60F
100
AcDbEntity
  8
0
370
     0
390
0
100
AcDbVertex
100
AcDb2dVertex
 10
289.278137
 20
-22.481121
 30
0.0
  0
VERTEX
  5
610
100
AcDbEntity
  8
0
370
     0
390
0
100
AcDbVertex
100
AcDb2dVertex
 10
289.401825
 20
-22.334259
 30
0.0
  0
VERTEX
  5
611
100
AcDbEntity
  8
0
370
     0
390
0
100
AcDbVertex
100
AcDb2dVertex
 10
289.468689
 20
-22.155012
 30
0.0
  0
VERTEX
  5
612
100
AcDbEntity
  8
0
370
     0
390
0
100
AcDbVertex
100
AcDb2dVertex
 10
289.473663
 20
-21.963631
 30
0.0
  0
SEQEND
  5
613
100
AcDbEntity
  8
0
370
     0
390
0
  0
ARC
  5
614
100
AcDbEntity
  8
0
370
    35
390
0
 62
     7
100
AcDbCircle
 10
263.326843
 20
-32.952774
 30
0.0
 40
0.392747
210
0.0
220
0.0
230
1.0
100
AcDbArc
 50
254.470845
 51
293.285724
  0
LINE
  5
615
100
AcDbEntity
  8
0
370
    35
390
0
 62
     7
 48
0.026557
100
AcDbLine
 10
-9.738953
 20
118.594009
 30
0.0
 11
-8.676727
 21
118.604958
 31
0.0
210
0.0
220
0.0
230
1.0
  0
LINE
  5
616
100
AcDbEntity
  8
0
370
    35
390
0
 62
     7
 48
0.024188
100
AcDbLine
 10
-8.676727
 20
118.604958
 30
0.0
 11
-7.784393
 21
118.978951
 31
0.0
210
0.0
220
0.0
230
1.0
  0
LINE
  5
617
100
AcDbEntity
  8
0
370
    35
390
0
 62
     7
 48
0.010021
100
AcDbLine
 10
-7.784393
 20
118.978951
 30
0.0
 11
-7.954346
 21
119.341995
 31
0.0
210
0.0
220
0.0
230
1.0
  0
LINE
  5
618
100
AcDbEntity
  8
0
370
    35
390
0
 62
     7
 48
0.010294
100
AcDbLine
 10
-7.954346
 20
119.341995
 30
0.0
 11
-7.887634
 21
118.935677
 31
0.0
210
0.0
220
0.0
230
1.0
  0
LINE
  5
619
100
AcDbEntity
  8
0
370
    35
390
0
 62
     7
 48
0.026557
100
AcDbLine
 10
-7.954346
 20
119.341995
 30
0.0
 11
-9.016571
 21
119.331047
 31
0.0
210
0.0
220
0.0
230
1.0
  0
LINE
  5
61A
100
AcDbEntity
  8
0
370
    35
390
0
 62
     7
 48
0.018452
100
AcDbLine
 10
-9.016571
 20
119.331047
 30
0.0
 11
-8.897034
 21
118.602692
 31
0.0
210
0.0
220
0.0
230
1.0
  0
LINE
  5
61B
100
AcDbEntity
  8
0
370
    35
390
0
 62
     7
 48
0.024188
100
AcDbLine
 10
-9.016571
 20
119.331047
 30
0.0
 11
-9.908875
 21
118.957054
 31
0.0
210
0.0
220
0.0
230
1.0
  0
LINE
  5
61C
100
AcDbEntity
  8
0
370
    35
390
0
 62
     7
 48
0.010021
100
AcDbLine
 10
-9.908875
 20
118.957054
 30
0.0
 11
-9.738953
 21
118.594009
 31
0.0
210
0.0
220
0.0
230
1.0
  0
ELLIPSE
  5
61D
100
AcDbEntity
  8
0
370
    35
390
0
 62
     7
100
AcDbEllipse
 10
-8.846649
 20
118.968002
 30
0.0
 11
1.973602294921875
 21
0.3239278793334961
 31
0.0
210
0.0
220
0.0
230
1.0
 40
0.335585
 41
0.0001041253436132
 42
3.1416967789333556
  0
ELLIPSE
  5
61E
100
AcDbEntity
  8
0
370
    35
390
0
 62
     7
100
AcDbEllipse
 10
-8.846649
 20
118.968002
 30
0.0
 11
1.973602294921875
 21
0.3239278793334961
 31
0.0
210
0.0
220
0.0
230
1.0
 40
0.335585
 41
3.1416967789334063
 42
4.2596305589287891
  0
ELLIPSE
  5
61F
100
AcDbEntity
  8
0
370
    35
390
0
 62
     7
100
AcDbEllipse
 10
-8.846649
 20
118.968002
 30
0.0
 11
1.973602294921875
 21
0.3239278793334961
 31
0.0
210
0.0
220
0.0
230
1.0
 40
0.335585
 41
4.2596305589287891
 42
6.2832894325232003
  0
LINE
  5
620
100
AcDbEntity
  8
0
370
    35
390
0
 62
     7
 48
0.017606
100
AcDbLine
 10
254.771042
 20
31.750793
 30
0.0
 11
255.475235
 21
31.758051
 31
0.0
210
0.0
220
0.0
230
1.0
  0
LINE
  5
621
100
AcDbEntity
  8
0
370
    35
390
0
 62
     7
 48
0.017731
100
AcDbLine
 10
256.071472
 20
31.861574
 30
0.0
 11
256.725586
 21
32.135735
 31
0.0
210
0.0
220
0.0
230
1.0
  0
LINE
  5
622
100
AcDbEntity
  8
0
370
    35
390
0
 62
     7
 48
0.010021
100
AcDbLine
 10
256.725586
 20
32.135735
 30
0.0
 11
256.555664
 21
32.498779
 31
0.0
210
0.0
220
0.0
230
1.0
  0
LINE
  5
623
100
AcDbEntity
  8
0
370
    35
390
0
 62
     7
 48
0.010294
100
AcDbLine
 10
256.555664
 20
32.498779
 30
0.0
 11
256.622345
 21
32.092461
 31
0.0
210
0.0
220
0.0
230
1.0
  0
LINE
  5
624
100
AcDbEntity
  8
0
370
    35
390
0
 62
     7
 48
0.026557
100
AcDbLine
 10
256.555664
 20
32.498779
 30
0.0
 11
255.493423
 21
32.487831
 31
0.0
210
0.0
220
0.0
230
1.0
  0
LINE
  5
625
100
AcDbEntity
  8
0
370
    35
390
0
 62
     7
 48
0.018025
100
AcDbLine
 10
255.493423
 20
32.487831
 30
0.0
 11
255.610199
 21
31.776342
 31
0.0
210
0.0
220
0.0
230
1.0
  0
LINE
  5
626
100
AcDbEntity
  8
0
370
    35
390
0
 62
     7
 48
0.024188
100
AcDbLine
 10
255.493423
 20
32.487831
 30
0.0
 11
254.601105
 21
32.113838
 31
0.0
210
0.0
220
0.0
230
1.0
  0
LINE
  5
627
100
AcDbEntity
  8
0
370
    35
390
0
 62
     7
 48
0.010021
100
AcDbLine
 10
254.601105
 20
32.113838
 30
0.0
 11
254.771042
 21
31.750793
 31
0.0
210
0.0
220
0.0
230
1.0
  0
LINE
  5
628
100
AcDbEntity
  8
0
370
    35
390
0
 62
     7
 48
0.026557
100
AcDbLine
 10
270.145355
 20
38.721539
 30
0.0
 11
271.207581
 21
38.732483
 31
0.0
210
0.0
220
0.0
230
1.0
  0
LINE
  5
629
100
AcDbEntity
  8
0
370
    35
390
0
 62
     7
 48
0.024188
100
AcDbLine
 10
271.207581
 20
38.732483
 30
0.0
 11
272.099915
 21
39.106476
 31
0.0
210
0.0
220
0.0
230
1.0
  0
LINE
  5
62A
100
AcDbEntity
  8
0
370
    35
390
0
 62
     7
 48
0.010021
100
AcDbLine
 10
272.099915
 20
39.106476
 30
0.0
 11
271.929993
 21
39.469521
 31
0.0
210
0.0
220
0.0
230
1.0
  0
LINE
  5
62B
100
AcDbEntity
  8
0
370
    35
390
0
 62
     7
 48
0.010294
100
AcDbLine
 10
271.929993
 20
39.469521
 30
0.0
 11
271.996674
 21
39.063206
 31
0.0
210
0.0
220
0.0
230
1.0
  0
LINE
  5
62C
100
AcDbEntity
  8
0
370
    35
390
0
 62
     7
 48
0.026558
100
AcDbLine
 10
271.929993
 20
39.469521
 30
0.0
 11
270.867737
 21
39.458572
 31
0.0
210
0.0
220
0.0
230
1.0
  0
LINE
  5
62D
100
AcDbEntity
  8
0
370
    35
390
0
 62
     7
 48
0.018453
100
AcDbLine
 10
270.867737
 20
39.458572
 30
0.0
 11
270.987305
 21
38.730213
 31
0.0
210
0.0
220
0.0
230
1.0
  0
LINE
  5
62E
100
AcDbEntity
  8
0
370
    35
390
0
 62
     7
 48
0.024188
100
AcDbLine
 10
270.867737
 20
39.458572
 30
0.0
 11
269.975433
 21
39.084579
 31
0.0
210
0.0
220
0.0
230
1.0
  0
LINE
  5
62F
100
AcDbEntity
  8
0
370
    35
390
0
 62
     7
 48
0.010021
100
AcDbLine
 10
269.975433
 20
39.084579
 30
0.0
 11
270.145355
 21
38.721539
 31
0.0
210
0.0
220
0.0
230
1.0
  0
ELLIPSE
  5
630
100
AcDbEntity
  8
0
370
    35
390
0
 62
     7
100
AcDbEllipse
 10
271.037659
 20
39.095528
 30
0.0
 11
1.973602294921875
 21
0.3239278793334961
 31
0.0
210
0.0
220
0.0
230
1.0
 40
0.335585
 41
0.0001041253435901
 42
3.1416967789333841
  0
ELLIPSE
  5
631
100
AcDbEntity
  8
0
370
    35
390
0
 62
     7
100
AcDbEllipse
 10
271.037659
 20
39.095528
 30
0.0
 11
1.973602294921875
 21
0.3239278793334961
 31
0.0
210
0.0
220
0.0
230
1.0
 40
0.335585
 41
3.1416967789333836
 42
4.2596305589288148
  0
ELLIPSE
  5
632
100
AcDbEntity
  8
0
370
    35
390
0
 62
     7
100
AcDbEllipse
 10
271.037659
 20
39.095528
 30
0.0
 11
1.973602294921875
 21
0.3239278793334961
 31
0.0
210
0.0
220
0.0
230
1.0
 40
0.335585
 41
4.2596305589288148
 42
6.2832894325231763
  0
LINE
  5
633
100
AcDbEntity
  8
0
370
    35
390
0
 62
     7
 48
0.026558
100
AcDbLine
 10
-25.160492
 20
111.910873
 30
0.0
 11
-24.098236
 21
111.921822
 31
0.0
210
0.0
220
0.0
230
1.0
  0
LINE
  5
634
100
AcDbEntity
  8
0
370
    35
390
0
 62
     7
 48
0.024188
100
AcDbLine
 10
-24.098236
 20
111.921822
 30
0.0
 11
-23.205933
 21
112.295815
 31
0.0
210
0.0
220
0.0
230
1.0
  0
LINE
  5
635
100
AcDbEntity
  8
0
370
    35
390
0
 62
     7
 48
0.010021
100
AcDbLine
 10
-23.205933
 20
112.295815
 30
0.0
 11
-23.375854
 21
112.658859
 31
0.0
210
0.0
220
0.0
230
1.0
  0
LINE
  5
636
100
AcDbEntity
  8
0
370
    35
390
0
 62
     7
 48
0.010294
100
AcDbLine
 10
-23.375854
 20
112.658859
 30
0.0
 11
-23.309174
 21
112.252541
 31
0.0
210
0.0
220
0.0
230
1.0
  0
LINE
  5
637
100
AcDbEntity
  8
0
370
    35
390
0
 62
     7
 48
0.026558
100
AcDbLine
 10
-23.375854
 20
112.658859
 30
0.0
 11
-24.43811
 21
112.647911
 31
0.0
210
0.0
220
0.0
230
1.0
  0
LINE
  5
638
100
AcDbEntity
  8
0
370
    35
390
0
 62
     7
 48
0.018453
100
AcDbLine
 10
-24.43811
 20
112.647911
 30
0.0
 11
-24.318542
 21
111.919548
 31
0.0
210
0.0
220
0.0
230
1.0
  0
LINE
  5
639
100
AcDbEntity
  8
0
370
    35
390
0
 62
     7
 48
0.024188
100
AcDbLine
 10
-24.43811
 20
112.647911
 30
0.0
 11
-25.330414
 21
112.273918
 31
0.0
210
0.0
220
0.0
230
1.0
  0
LINE
  5
63A
100
AcDbEntity
  8
0
370
    35
390
0
 62
     7
 48
0.010021
100
AcDbLine
 10
-25.330414
 20
112.273918
 30
0.0
 11
-25.160492
 21
111.910873
 31
0.0
210
0.0
220
0.0
230
1.0
  0
LINE
  5
63B
100
AcDbEntity
  8
0
370
    35
390
0
 62
     7
 48
0.007065
100
AcDbLine
 10
-32.221008
 20
110.589012
 30
0.0
 11
-32.175262
 21
110.310135
 31
0.0
210
0.0
220
0.0
230
1.0
  0
LINE
  5
63C
100
AcDbEntity
  8
0
370
    35
390
0
 62
     7
 48
0.006992
100
AcDbLine
 10
-32.221008
 20
110.589012
 30
0.0
 11
-32.096985
 21
110.839699
 31
0.0
210
0.0
220
0.0
230
1.0
  0
LINE
  5
63D
100
AcDbEntity
  8
0
370
    35
390
0
 62
     7
100
AcDbLine
 10
-5.668518
 20
121.916618
 30
0.0
 11
-32.096985
 21
110.839699
 31
0.0
210
0.0
220
0.0
230
1.0
  0
ELLIPSE
  5
63E
100
AcDbEntity
  8
0
370
    35
390
0
 62
     7
100
AcDbEllipse
 10
-24.300049
 20
112.479111
 30
0.0
 11
-2.092987060546875
 21
-0.3435258865356445
 31
0.0
210
0.0
220
0.0
230
1.0
 40
0.335585
 41
2.7773190940689765
 42
6.6474439278046731
  0
ELLIPSE
  5
63F
100
AcDbEntity
  8
0
370
    35
390
0
 62
     7
100
AcDbEllipse
 10
-24.300049
 20
112.479111
 30
0.0
 11
-2.092987060546875
 21
-0.3435258865356445
 31
0.0
210
0.0
220
0.0
230
1.0
 40
0.335585
 41
1.6888342321339045
 42
2.7773190940689765
  0
ELLIPSE
  5
640
100
AcDbEntity
  8
0
370
    35
390
0
 62
     7
100
AcDbEllipse
 10
-24.300049
 20
112.479111
 30
0.0
 11
-2.092987060546875
 21
-0.3435258865356445
 31
0.0
210
0.0
220
0.0
230
1.0
 40
0.335585
 41
0.3642586206250869
 42
1.6888342321339045
  0
ELLIPSE
  5
641
100
AcDbEntity
  8
0
370
    35
390
0
 62
     7
100
AcDbEllipse
 10
-8.844818
 20
118.956841
 30
0.0
 11
-2.092987060546875
 21
-0.3435258865356445
 31
0.0
210
0.0
220
0.0
230
1.0
 40
0.335585
 41
2.7773190940690071
 42
6.6474439278047246
  0
ELLIPSE
  5
642
100
AcDbEntity
  8
0
370
    35
390
0
 62
     7
100
AcDbEllipse
 10
-8.844818
 20
118.956841
 30
0.0
 11
-2.092987060546875
 21
-0.3435258865356445
 31
0.0
210
0.0
220
0.0
230
1.0
 40
0.335585
 41
1.6888342321339089
 42
2.7773190940690071
  0
ELLIPSE
  5
643
100
AcDbEntity
  8
0
370
    35
390
0
 62
     7
100
AcDbEllipse
 10
-8.844818
 20
118.956841
 30
0.0
 11
-2.092987060546875
 21
-0.3435258865356445
 31
0.0
210
0.0
220
0.0
230
1.0
 40
0.335585
 41
0.3642586206251389
 42
1.6888342321339089
  0
LINE
  5
644
100
AcDbEntity
  8
0
370
    35
390
0
 62
     7
100
AcDbLine
 10
-23.799438
 20
110.951874
 30
0.0
 11
-4.416779
 21
119.075699
 31
0.0
210
0.0
220
0.0
230
1.0
  0
LINE
  5
645
100
AcDbEntity
  8
0
370
    35
390
0
 62
     7
 48
0.027654
100
AcDbLine
 10
-23.62027
 20
109.860313
 30
0.0
 11
-23.799438
 21
110.951874
 31
0.0
210
0.0
220
0.0
230
1.0
  0
LINE
  5
646
100
AcDbEntity
  8
0
370
    35
390
0
 62
     7
 48
0.446167
100
AcDbLine
 10
-3.882751
 20
115.822197
 30
0.0
 11
-20.342194
 21
108.923584
 31
0.0
210
0.0
220
0.0
230
1.0
  0
LINE
  5
647
100
AcDbEntity
  8
0
370
    35
390
0
 62
     7
 48
0.082426
100
AcDbLine
 10
-3.882751
 20
115.822197
 30
0.0
 11
-4.416779
 21
119.075699
 31
0.0
210
0.0
220
0.0
230
1.0
  0
LINE
  5
648
100
AcDbEntity
  8
0
370
    35
390
0
 62
     7
 48
0.097465
100
AcDbLine
 10
-28.957855
 20
111.842964
 30
0.0
 11
-25.201813
 21
110.79834
 31
0.0
210
0.0
220
0.0
230
1.0
  0
LINE
  5
649
100
AcDbEntity
  8
0
370
    35
390
0
 62
     7
 48
0.012921
100
AcDbLine
 10
-25.118103
 20
110.28833
 30
0.0
 11
-25.201813
 21
110.79834
 31
0.0
210
0.0
220
0.0
230
1.0
  0
LINE
  5
64A
100
AcDbEntity
  8
0
370
    35
390
0
 62
     7
 48
0.01219
100
AcDbLine
 10
-28.876251
 20
111.362236
 30
0.0
 11
-28.957855
 21
111.842964
 31
0.0
210
0.0
220
0.0
230
1.0
  0
LINE
  5
64B
100
AcDbEntity
  8
0
370
    35
390
0
 62
     7
 48
0.095744
100
AcDbLine
 10
-7.921173
 20
120.660034
 30
0.0
 11
-4.24649
 21
119.581314
 31
0.0
210
0.0
220
0.0
230
1.0
  0
LINE
  5
64C
100
AcDbEntity
  8
0
370
    35
390
0
 62
     7
 48
0.054166
100
AcDbLine
 10
-3.895569
 20
117.443298
 30
0.0
 11
-4.24649
 21
119.581314
 31
0.0
210
0.0
220
0.0
230
1.0
  0
LINE
  5
64D
100
AcDbEntity
  8
0
370
    35
390
0
 62
     7
 48
0.01785
100
AcDbLine
 10
-29.18634
 20
95.191864
 30
0.0
 11
-29.872864
 21
95.388039
 31
0.0
210
0.0
220
0.0
230
1.0
  0
LINE
  5
64E
100
AcDbEntity
  8
0
370
    35
390
0
 62
     7
 48
0.00164
100
AcDbLine
 10
-29.125854
 20
95.217216
 30
0.0
 11
-29.18634
 21
95.191864
 31
0.0
210
0.0
220
0.0
230
1.0
  0
LINE
  5
64F
100
AcDbEntity
  8
0
370
    35
390
0
 62
     7
 48
0.004536
100
AcDbLine
 10
-29.872864
 20
95.388039
 30
0.0
 11
-29.902252
 21
95.56707
 31
0.0
210
0.0
220
0.0
230
1.0
  0
LINE
  5
650
100
AcDbEntity
  8
0
370
    35
390
0
 62
     7
 48
0.004531
100
AcDbLine
 10
-29.18634
 20
95.191864
 30
0.0
 11
-29.216675
 21
95.370552
 31
0.0
210
0.0
220
0.0
230
1.0
  0
LINE
  5
651
100
AcDbEntity
  8
0
370
    35
390
0
 62
     7
 48
0.011524
100
AcDbLine
 10
-5.668518
 20
121.916618
 30
0.0
 11
-5.225281
 21
121.789963
 31
0.0
210
0.0
220
0.0
230
1.0
  0
LINE
  5
652
100
AcDbEntity
  8
0
370
    35
390
0
 62
     7
 48
0.003104
100
AcDbLine
 10
-5.121307
 20
121.72213
 30
0.0
 11
-5.225281
 21
121.789963
 31
0.0
210
0.0
220
0.0
230
1.0
  0
LINE
  5
653
100
AcDbEntity
  8
0
370
    35
390
0
 62
     7
 48
0.035269
100
AcDbLine
 10
-23.799438
 20
110.951874
 30
0.0
 11
-25.201813
 21
110.79834
 31
0.0
210
0.0
220
0.0
230
1.0
  0
LINE
  5
654
100
AcDbEntity
  8
0
370
    35
390
0
 62
     7
 48
0.013338
100
AcDbLine
 10
-4.416779
 20
119.075699
 30
0.0
 11
-4.24649
 21
119.581314
 31
0.0
210
0.0
220
0.0
230
1.0
  0
LINE
  5
655
100
AcDbEntity
  8
0
370
    35
390
0
 62
     7
 48
0.073078
100
AcDbLine
 10
-5.225281
 20
121.789963
 30
0.0
 11
-7.921173
 21
120.660034
 31
0.0
210
0.0
220
0.0
230
1.0
  0
LINE
  5
656
100
AcDbEntity
  8
0
370
    35
390
0
 62
     7
 48
0.011524
100
AcDbLine
 10
-32.096985
 20
110.839699
 30
0.0
 11
-31.653748
 21
110.713043
 31
0.0
210
0.0
220
0.0
230
1.0
  0
LINE
  5
657
100
AcDbEntity
  8
0
370
    35
390
0
 62
     7
 48
0.073078
100
AcDbLine
 10
-28.957855
 20
111.842964
 30
0.0
 11
-31.653748
 21
110.713043
 31
0.0
210
0.0
220
0.0
230
1.0
  0
LINE
  5
658
100
AcDbEntity
  8
0
370
    35
390
0
 62
     7
 48
0.006987
100
AcDbLine
 10
-31.776703
 20
110.462044
 30
0.0
 11
-31.653748
 21
110.713043
 31
0.0
210
0.0
220
0.0
230
1.0
  0
LINE
  5
659
100
AcDbEntity
  8
0
370
    35
390
0
 62
     7
 48
0.011552
100
AcDbLine
 10
-32.221008
 20
110.589012
 30
0.0
 11
-31.776703
 21
110.462044
 31
0.0
210
0.0
220
0.0
230
1.0
  0
LINE
  5
65A
100
AcDbEntity
  8
0
370
    35
390
0
 62
     7
 48
0.007083
100
AcDbLine
 10
-31.729309
 20
110.182709
 30
0.0
 11
-31.776703
 21
110.462044
 31
0.0
210
0.0
220
0.0
230
1.0
  0
LINE
  5
65B
100
AcDbEntity
  8
0
370
    35
390
0
 62
     7
 48
0.011595
100
AcDbLine
 10
-32.175262
 20
110.310135
 30
0.0
 11
-31.729309
 21
110.182709
 31
0.0
210
0.0
220
0.0
230
1.0
  0
LINE
  5
65C
100
AcDbEntity
  8
0
370
    35
390
0
 62
     7
 48
0.013338
100
AcDbLine
 10
-3.882751
 20
115.822197
 30
0.0
 11
-3.712524
 21
116.32782
 31
0.0
210
0.0
220
0.0
230
1.0
  0
LINE
  5
65D
100
AcDbEntity
  8
0
370
    35
390
0
 62
     7
 48
0.018667
100
AcDbLine
 10
-32.196655
 20
110.638229
 30
0.0
 11
-32.885284
 21
110.349617
 31
0.0
210
0.0
220
0.0
230
1.0
  0
LINE
  5
65E
100
AcDbEntity
  8
0
370
    35
390
0
 62
     7
 48
0.024028
100
AcDbLine
 10
-32.885284
 20
110.349617
 30
0.0
 11
-31.961151
 21
110.085541
 31
0.0
210
0.0
220
0.0
230
1.0
  0
LINE
  5
65F
100
AcDbEntity
  8
0
370
    35
390
0
 62
     7
 48
0.006285
100
AcDbLine
 10
-31.961151
 20
110.085541
 30
0.0
 11
-31.729309
 21
110.182709
 31
0.0
210
0.0
220
0.0
230
1.0
  0
LINE
  5
660
100
AcDbEntity
  8
0
370
    35
390
0
 62
     7
 48
0.024028
100
AcDbLine
 10
-32.084106
 20
109.834541
 30
0.0
 11
-33.00824
 21
110.098618
 31
0.0
210
0.0
220
0.0
230
1.0
  0
LINE
  5
661
100
AcDbEntity
  8
0
370
    35
390
0
 62
     7
 48
0.006987
100
AcDbLine
 10
-31.961151
 20
110.085541
 30
0.0
 11
-32.084106
 21
109.834541
 31
0.0
210
0.0
220
0.0
230
1.0
  0
LINE
  5
662
100
AcDbEntity
  8
0
370
    35
390
0
 62
     7
 48
0.006987
100
AcDbLine
 10
-32.885284
 20
110.349617
 30
0.0
 11
-33.00824
 21
110.098618
 31
0.0
210
0.0
220
0.0
230
1.0
  0
LINE
  5
663
100
AcDbEntity
  8
0
370
    35
390
0
 62
     7
 48
0.001705
100
AcDbLine
 10
-29.588806
 20
95.521828
 30
0.0
 11
-29.651703
 21
95.495476
 31
0.0
210
0.0
220
0.0
230
1.0
  0
LINE
  5
664
100
AcDbEntity
  8
0
370
    35
390
0
 62
     7
 48
0.024028
100
AcDbLine
 10
-30.575836
 20
95.759544
 30
0.0
 11
-29.651703
 21
95.495476
 31
0.0
210
0.0
220
0.0
230
1.0
  0
LINE
  5
665
100
AcDbEntity
  8
0
370
    35
390
0
 62
     7
 48
0.363598
100
AcDbLine
 10
-29.651703
 20
95.495476
 30
0.0
 11
-32.084106
 21
109.834541
 31
0.0
210
0.0
220
0.0
230
1.0
  0
LINE
  5
666
100
AcDbEntity
  8
0
370
    35
390
0
 62
     7
 48
0.363598
100
AcDbLine
 10
-33.00824
 20
110.098618
 30
0.0
 11
-30.575836
 21
95.759544
 31
0.0
210
0.0
220
0.0
230
1.0
  0
LINE
  5
667
100
AcDbEntity
  8
0
370
    35
390
0
 62
     7
 48
0.012526
100
AcDbLine
 10
-4.076019
 20
118.542664
 30
0.0
 11
-3.595276
 21
118.401543
 31
0.0
210
0.0
220
0.0
230
1.0
  0
LINE
  5
668
100
AcDbEntity
  8
0
370
    35
390
0
 62
     7
 48
0.02826
100
AcDbLine
 10
-3.595276
 20
118.401543
 30
0.0
 11
-3.412201
 21
117.286057
 31
0.0
210
0.0
220
0.0
230
1.0
  0
LINE
  5
669
100
AcDbEntity
  8
0
370
    35
390
0
 62
     7
 48
0.025105
100
AcDbLine
 10
-3.895599
 20
117.443306
 30
0.0
 11
-3.595276
 21
118.401543
 31
0.0
210
0.0
220
0.0
230
1.0
  0
LINE
  5
66A
100
AcDbEntity
  8
0
370
    35
390
0
 62
     7
 48
0.025105
100
AcDbLine
 10
-3.412201
 20
117.286057
 30
0.0
 11
-3.712524
 21
116.32782
 31
0.0
210
0.0
220
0.0
230
1.0
  0
LINE
  5
66B
100
AcDbEntity
  8
0
370
    35
390
0
 62
     7
 48
0.006993
100
AcDbLine
 10
252.302185
 20
29.284964
 30
0.0
 11
252.426224
 21
29.535656
 31
0.0
210
0.0
220
0.0
230
1.0
  0
LINE
  5
66C
100
AcDbEntity
  8
0
370
    35
390
0
 62
     7
 48
0.007065
100
AcDbLine
 10
252.302185
 20
29.284964
 30
0.0
 11
252.347961
 21
29.006092
 31
0.0
210
0.0
220
0.0
230
1.0
  0
LINE
  5
66D
100
AcDbEntity
  8
0
370
    35
390
0
 62
     7
100
AcDbLine
 10
252.347961
 20
29.006092
 30
0.0
 11
279.08551
 21
40.212563
 31
0.0
210
0.0
220
0.0
230
1.0
  0
LINE
  5
66E
100
AcDbEntity
  8
0
370
    35
390
0
 62
     7
 48
0.007065
100
AcDbLine
 10
279.039734
 20
40.491436
 30
0.0
 11
279.08551
 21
40.212563
 31
0.0
210
0.0
220
0.0
230
1.0
  0
LINE
  5
66F
100
AcDbEntity
  8
0
370
    35
390
0
 62
     7
 48
0.005529
100
AcDbLine
 10
279.039734
 20
40.491436
 30
0.0
 11
278.854675
 21
40.612572
 31
0.0
210
0.0
220
0.0
230
1.0
  0
LINE
  5
670
100
AcDbEntity
  8
0
370
    35
390
0
 62
     7
100
AcDbLine
 10
252.426224
 20
29.535656
 30
0.0
 11
278.854675
 21
40.612572
 31
0.0
210
0.0
220
0.0
230
1.0
  0
ELLIPSE
  5
671
100
AcDbEntity
  8
0
370
    35
390
0
 62
     7
100
AcDbEllipse
 10
271.057739
 20
38.97316
 30
0.0
 11
-2.092987060546875
 21
-0.3435258865356445
 31
0.0
210
0.0
220
0.0
230
1.0
 40
0.335585
 41
0.364258620625113
 42
2.7773190940689778
  0
ELLIPSE
  5
672
100
AcDbEntity
  8
0
370
    35
390
0
 62
     7
100
AcDbEllipse
 10
271.057739
 20
38.97316
 30
0.0
 11
-2.092987060546875
 21
-0.3435258865356445
 31
0.0
210
0.0
220
0.0
230
1.0
 40
0.335585
 41
5.8658991953674802
 42
6.6474439278046997
  0
ELLIPSE
  5
673
100
AcDbEntity
  8
0
370
    35
390
0
 62
     7
100
AcDbEllipse
 10
271.057739
 20
38.97316
 30
0.0
 11
-2.092987060546875
 21
-0.3435258865356445
 31
0.0
210
0.0
220
0.0
230
1.0
 40
0.335585
 41
2.7773190940689778
 42
3.5587555715080326
  0
ELLIPSE
  5
674
100
AcDbEntity
  8
0
370
    35
390
0
 62
     7
100
AcDbEllipse
 10
255.602509
 20
32.49543
 30
0.0
 11
-2.092987060546875
 21
-0.3435258865356445
 31
0.0
210
0.0
220
0.0
230
1.0
 40
0.335585
 41
0.3642586206251127
 42
2.7773190940689876
  0
ELLIPSE
  5
675
100
AcDbEntity
  8
0
370
    35
390
0
 62
     7
100
AcDbEllipse
 10
255.602509
 20
32.49543
 30
0.0
 11
-2.092987060546875
 21
-0.3435258865356445
 31
0.0
210
0.0
220
0.0
230
1.0
 40
0.335585
 41
4.8304268857237087
 42
6.6474439278046988
  0
ELLIPSE
  5
676
100
AcDbEntity
  8
0
370
    35
390
0
 62
     7
100
AcDbEllipse
 10
255.602509
 20
32.49543
 30
0.0
 11
-2.092987060546875
 21
-0.3435258865356445
 31
0.0
210
0.0
220
0.0
230
1.0
 40
0.335585
 41
2.777319094068988
 42
4.8304268857237087
  0
LINE
  5
677
100
AcDbEntity
  8
0
370
    35
390
0
 62
     7
100
AcDbLine
 10
270.557129
 20
40.500401
 30
0.0
 11
251.174469
 21
32.376579
 31
0.0
210
0.0
220
0.0
230
1.0
  0
LINE
  5
678
100
AcDbEntity
  8
0
370
    35
390
0
 62
     7
 48
0.097464
100
AcDbLine
 10
275.715546
 20
39.609306
 30
0.0
 11
271.959534
 21
40.653938
 31
0.0
210
0.0
220
0.0
230
1.0
  0
LINE
  5
679
100
AcDbEntity
  8
0
370
    35
390
0
 62
     7
 48
0.095744
100
AcDbLine
 10
254.678864
 20
30.79224
 30
0.0
 11
251.004181
 21
31.87096
 31
0.0
210
0.0
220
0.0
230
1.0
  0
LINE
  5
67A
100
AcDbEntity
  8
0
370
    35
390
0
 62
     7
 48
0.012905
100
AcDbLine
 10
251.087799
 20
31.361586
 30
0.0
 11
251.004181
 21
31.87096
 31
0.0
210
0.0
220
0.0
230
1.0
  0
LINE
  5
67B
100
AcDbEntity
  8
0
370
    35
390
0
 62
     7
 48
0.004524
100
AcDbLine
 10
254.271866
 20
14.192142
 30
0.0
 11
254.243515
 21
14.370876
 31
0.0
210
0.0
220
0.0
230
1.0
  0
LINE
  5
67C
100
AcDbEntity
  8
0
370
    35
390
0
 62
     7
 48
0.01785
100
AcDbLine
 10
254.958389
 20
13.995968
 30
0.0
 11
254.271866
 21
14.192142
 31
0.0
210
0.0
220
0.0
230
1.0
  0
LINE
  5
67D
100
AcDbEntity
  8
0
370
    35
390
0
 62
     7
 48
0.00776
100
AcDbLine
 10
254.958389
 20
13.995968
 30
0.0
 11
254.908112
 21
14.302274
 31
0.0
210
0.0
220
0.0
230
1.0
  0
LINE
  5
67E
100
AcDbEntity
  8
0
370
    35
390
0
 62
     7
100
AcDbLine
 10
281.695953
 20
25.20244
 30
0.0
 11
254.958389
 21
13.995968
 31
0.0
210
0.0
220
0.0
230
1.0
  0
LINE
  5
67F
100
AcDbEntity
  8
0
370
    35
390
0
 62
     7
 48
0.00776
100
AcDbLine
 10
281.695953
 20
25.20244
 30
0.0
 11
281.645691
 21
25.508747
 31
0.0
210
0.0
220
0.0
230
1.0
  0
LINE
  5
680
100
AcDbEntity
  8
0
370
    35
390
0
 62
     7
 48
0.011553
100
AcDbLine
 10
252.302185
 20
29.284964
 30
0.0
 11
251.857864
 21
29.41193
 31
0.0
210
0.0
220
0.0
230
1.0
  0
LINE
  5
681
100
AcDbEntity
  8
0
370
    35
390
0
 62
     7
 48
0.011525
100
AcDbLine
 10
252.426224
 20
29.535656
 30
0.0
 11
251.982971
 21
29.662315
 31
0.0
210
0.0
220
0.0
230
1.0
  0
LINE
  5
682
100
AcDbEntity
  8
0
370
    35
390
0
 62
     7
 48
0.006998
100
AcDbLine
 10
251.857864
 20
29.41193
 30
0.0
 11
251.982971
 21
29.662315
 31
0.0
210
0.0
220
0.0
230
1.0
  0
LINE
  5
683
100
AcDbEntity
  8
0
370
    35
390
0
 62
     7
 48
0.03527
100
AcDbLine
 10
270.557129
 20
40.500401
 30
0.0
 11
271.959534
 21
40.653938
 31
0.0
210
0.0
220
0.0
230
1.0
  0
LINE
  5
684
100
AcDbEntity
  8
0
370
    35
390
0
 62
     7
 48
0.013338
100
AcDbLine
 10
251.174469
 20
32.376579
 30
0.0
 11
251.004181
 21
31.87096
 31
0.0
210
0.0
220
0.0
230
1.0
  0
LINE
  5
685
100
AcDbEntity
  8
0
370
    35
390
0
 62
     7
 48
0.073078
100
AcDbLine
 10
251.982971
 20
29.662315
 30
0.0
 11
254.678864
 21
30.79224
 31
0.0
210
0.0
220
0.0
230
1.0
  0
LINE
  5
686
100
AcDbEntity
  8
0
370
    35
390
0
 62
     7
 48
0.011525
100
AcDbLine
 10
278.854675
 20
40.612572
 30
0.0
 11
278.411438
 21
40.739235
 31
0.0
210
0.0
220
0.0
230
1.0
  0
LINE
  5
687
100
AcDbEntity
  8
0
370
    35
390
0
 62
     7
 48
0.073078
100
AcDbLine
 10
275.715546
 20
39.609306
 30
0.0
 11
278.411438
 21
40.739235
 31
0.0
210
0.0
220
0.0
230
1.0
  0
LINE
  5
688
100
AcDbEntity
  8
0
370
    35
390
0
 62
     7
 48
0.011595
100
AcDbLine
 10
252.347961
 20
29.006092
 30
0.0
 11
251.902023
 21
29.13352
 31
0.0
210
0.0
220
0.0
230
1.0
  0
LINE
  5
689
100
AcDbEntity
  8
0
370
    35
390
0
 62
     7
 48
0.007047
100
AcDbLine
 10
251.902023
 20
29.13352
 30
0.0
 11
251.857864
 21
29.41193
 31
0.0
210
0.0
220
0.0
230
1.0
  0
LINE
  5
68A
100
AcDbEntity
  8
0
370
    35
390
0
 62
     7
 48
0.024028
100
AcDbLine
 10
252.469208
 20
28.521896
 30
0.0
 11
251.545074
 21
28.785969
 31
0.0
210
0.0
220
0.0
230
1.0
  0
LINE
  5
68B
100
AcDbEntity
  8
0
370
    35
390
0
 62
     7
 48
0.006998
100
AcDbLine
 10
252.594315
 20
28.772282
 30
0.0
 11
252.469208
 21
28.521896
 31
0.0
210
0.0
220
0.0
230
1.0
  0
LINE
  5
68C
100
AcDbEntity
  8
0
370
    35
390
0
 62
     7
 48
0.024028
100
AcDbLine
 10
251.670197
 20
29.036354
 30
0.0
 11
252.594315
 21
28.772282
 31
0.0
210
0.0
220
0.0
230
1.0
  0
LINE
  5
68D
100
AcDbEntity
  8
0
370
    35
390
0
 62
     7
 48
0.006998
100
AcDbLine
 10
251.670197
 20
29.036354
 30
0.0
 11
251.545074
 21
28.785969
 31
0.0
210
0.0
220
0.0
230
1.0
  0
LINE
  5
68E
100
AcDbEntity
  8
0
370
    35
390
0
 62
     7
100
AcDbLine
 10
252.594315
 20
28.772282
 30
0.0
 11
279.795532
 21
40.173088
 31
0.0
210
0.0
220
0.0
230
1.0
  0
LINE
  5
68F
100
AcDbEntity
  8
0
370
    35
390
0
 62
     7
 48
0.019193
100
AcDbLine
 10
279.795532
 20
40.173088
 30
0.0
 11
279.057373
 21
40.384018
 31
0.0
210
0.0
220
0.0
230
1.0
  0
LINE
  5
690
100
AcDbEntity
  8
0
370
    35
390
0
 62
     7
 48
0.006284
100
AcDbLine
 10
251.902023
 20
29.13352
 30
0.0
 11
251.670197
 21
29.036354
 31
0.0
210
0.0
220
0.0
230
1.0
  0
LINE
  5
691
100
AcDbEntity
  8
0
370
    35
390
0
 62
     7
 48
0.005504
100
AcDbLine
 10
279.795532
 20
40.173088
 30
0.0
 11
279.979553
 21
40.052254
 31
0.0
210
0.0
220
0.0
230
1.0
  0
LINE
  5
692
100
AcDbEntity
  8
0
370
    35
390
0
 62
     7
 48
0.024028
100
AcDbLine
 10
254.736008
 20
14.230145
 30
0.0
 11
253.81189
 21
14.494217
 31
0.0
210
0.0
220
0.0
230
1.0
  0
LINE
  5
693
100
AcDbEntity
  8
0
370
    35
390
0
 62
     7
100
AcDbLine
 10
282.246338
 20
25.760504
 30
0.0
 11
254.736008
 21
14.230145
 31
0.0
210
0.0
220
0.0
230
1.0
  0
LINE
  5
694
100
AcDbEntity
  8
0
370
    35
390
0
 62
     7
 48
0.36176
100
AcDbLine
 10
252.469208
 20
28.521896
 30
0.0
 11
254.736008
 21
14.230145
 31
0.0
210
0.0
220
0.0
230
1.0
  0
LINE
  5
695
100
AcDbEntity
  8
0
370
    35
390
0
 62
     7
 48
0.36176
100
AcDbLine
 10
253.81189
 20
14.494217
 30
0.0
 11
251.545074
 21
28.785969
 31
0.0
210
0.0
220
0.0
230
1.0
  0
LINE
  5
696
100
AcDbEntity
  8
0
370
    35
390
0
 62
     7
 48
0.36176
100
AcDbLine
 10
279.979553
 20
40.052254
 30
0.0
 11
282.246338
 21
25.760504
 31
0.0
210
0.0
220
0.0
230
1.0
  0
ELLIPSE
  5
697
100
AcDbEntity
  8
0
370
    35
390
0
 62
     7
100
AcDbEllipse
 10
219.166489
 20
40.600967
 30
0.0
 11
6.660888671875
 21
1.093256950378418
 31
0.0
210
0.0
220
0.0
230
1.0
 40
0.335585
 41
0.3391589444788402
 42
2.2208677238551866
  0
ELLIPSE
  5
698
100
AcDbEntity
  8
0
370
    35
390
0
 62
     7
100
AcDbEllipse
 10
218.922379
 20
42.08828
 30
0.0
 11
6.660888671875
 21
1.093256950378418
 31
0.0
210
0.0
220
0.0
230
1.0
 40
0.335585
 41
0.0000000156522774
 42
2.6196062782552176
  0
ELLIPSE
  5
699
100
AcDbEntity
  8
0
370
    35
390
0
 62
     7
100
AcDbEllipse
 10
218.922379
 20
42.08828
 30
0.0
 11
6.660888671875
 21
1.093256950378418
 31
0.0
210
0.0
220
0.0
230
1.0
 40
0.335585
 41
4.8996539201668927
 42
5.3304268857237078
  0
ELLIPSE
  5
69A
100
AcDbEntity
  8
0
370
    35
390
0
 62
     7
100
AcDbEllipse
 10
218.922379
 20
42.08828
 30
0.0
 11
6.660888671875
 21
1.093256950378418
 31
0.0
210
0.0
220
0.0
230
1.0
 40
0.335585
 41
5.3304268857237114
 42
6.283185322831863
  0
LINE
  5
69B
100
AcDbEntity
  8
0
370
    35
390
0
 62
     7
100
AcDbLine
 10
-3.477234
 20
117.078522
 30
0.0
 11
268.10553
 21
39.472855
 31
0.0
210
0.0
220
0.0
230
1.0
  0
ELLIPSE
  5
69C
100
AcDbEntity
  8
0
370
    35
390
0
 62
     7
100
AcDbEllipse
 10
53.197632
 20
89.880432
 30
0.0
 11
-2.220306396484375
 21
-0.3644189834594727
 31
0.0
210
0.0
220
0.0
230
1.0
 40
0.335585
 41
0.0001041253436038
 42
3.141696778933361
  0
ELLIPSE
  5
69D
100
AcDbEntity
  8
0
370
    35
390
0
 62
     7
100
AcDbEllipse
 10
53.197632
 20
89.880432
 30
0.0
 11
-2.220306396484375
 21
-0.3644189834594727
 31
0.0
210
0.0
220
0.0
230
1.0
 40
0.335585
 41
4.259630558928782
 42
6.2832894325231896
  0
ELLIPSE
  5
69E
100
AcDbEntity
  8
0
370
    35
390
0
 62
     7
100
AcDbEllipse
 10
53.197632
 20
89.880432
 30
0.0
 11
-2.220306396484375
 21
-0.3644189834594727
 31
0.0
210
0.0
220
0.0
230
1.0
 40
0.335585
 41
3.141696778933357
 42
4.2596305589287855
  0
ELLIPSE
  5
69F
100
AcDbEntity
  8
0
370
    35
390
0
 62
     7
100
AcDbEllipse
 10
188.736328
 20
51.149803
 30
0.0
 11
-2.220306396484375
 21
-0.3644189834594727
 31
0.0
210
0.0
220
0.0
230
1.0
 40
0.335585
 41
0.0001041253435796
 42
3.1416967789333947
  0
ELLIPSE
  5
6A0
100
AcDbEntity
  8
0
370
    35
390
0
 62
     7
100
AcDbEllipse
 10
188.736328
 20
51.149803
 30
0.0
 11
-2.220306396484375
 21
-0.3644189834594727
 31
0.0
210
0.0
220
0.0
230
1.0
 40
0.335585
 41
4.2596305589288281
 42
6.2832894325231665
  0
ELLIPSE
  5
6A1
100
AcDbEntity
  8
0
370
    35
390
0
 62
     7
100
AcDbEllipse
 10
188.736328
 20
51.149803
 30
0.0
 11
-2.220306396484375
 21
-0.3644189834594727
 31
0.0
210
0.0
220
0.0
230
1.0
 40
0.335585
 41
3.1416967789333938
 42
4.2596305589288281
  0
LINE
  5
6A2
100
AcDbEntity
  8
0
370
    35
390
0
 62
     7
 48
0.001578
100
AcDbLine
 10
278.330994
 20
40.762215
 30
0.0
 11
278.38382
 21
40.727654
 31
0.0
210
0.0
220
0.0
230
1.0
  0
LINE
  5
6A3
100
AcDbEntity
  8
0
370
    35
390
0
 62
     7
 48
0.05551
100
AcDbLine
 10
276.283203
 20
39.903915
 30
0.0
 11
278.330994
 21
40.762215
 31
0.0
210
0.0
220
0.0
230
1.0
  0
LINE
  5
6A4
100
AcDbEntity
  8
0
370
    35
390
0
 62
     7
 48
0.001995
100
AcDbLine
 10
276.283203
 20
39.903915
 30
0.0
 11
276.247803
 21
39.83239
 31
0.0
210
0.0
220
0.0
230
1.0
  0
LINE
  5
6A5
100
AcDbEntity
  8
0
370
    35
390
0
 62
     7
 48
0.001578
100
AcDbLine
 10
254.003174
 20
30.509035
 30
0.0
 11
253.950363
 21
30.543596
 31
0.0
210
0.0
220
0.0
230
1.0
  0
LINE
  5
6A6
100
AcDbEntity
  8
0
370
    35
390
0
 62
     7
 48
0.05551
100
AcDbLine
 10
251.902557
 20
29.685297
 30
0.0
 11
253.950363
 21
30.543596
 31
0.0
210
0.0
220
0.0
230
1.0
  0
LINE
  5
6A7
100
AcDbEntity
  8
0
370
    35
390
0
 62
     7
 48
0.006993
100
AcDbLine
 10
251.778519
 20
29.434605
 30
0.0
 11
251.902557
 21
29.685297
 31
0.0
210
0.0
220
0.0
230
1.0
  0
LINE
  5
6A8
100
AcDbEntity
  8
0
370
    35
390
0
 62
     7
 48
0.007065
100
AcDbLine
 10
251.778519
 20
29.434605
 30
0.0
 11
251.82428
 21
29.155733
 31
0.0
210
0.0
220
0.0
230
1.0
  0
LINE
  5
6A9
100
AcDbEntity
  8
0
370
    35
390
0
 62
     7
 48
0.006284
100
AcDbLine
 10
251.82428
 20
29.155733
 30
0.0
 11
251.592453
 21
29.058567
 31
0.0
210
0.0
220
0.0
230
1.0
  0
LINE
  5
6AA
100
AcDbEntity
  8
0
370
    35
390
0
 62
     7
 48
0.006992
100
AcDbLine
 10
251.592453
 20
29.058567
 30
0.0
 11
251.468414
 21
28.807877
 31
0.0
210
0.0
220
0.0
230
1.0
  0
LINE
  5
6AB
100
AcDbEntity
  8
0
370
    35
390
0
 62
     7
 48
0.362674
100
AcDbLine
 10
253.818024
 20
14.492464
 30
0.0
 11
251.468414
 21
28.807877
 31
0.0
210
0.0
220
0.0
230
1.0
  0
LINE
  5
6AC
100
AcDbEntity
  8
0
370
    35
390
0
 62
     7
 48
0.004536
100
AcDbLine
 10
254.251312
 20
14.36865
 30
0.0
 11
254.280685
 21
14.189621
 31
0.0
210
0.0
220
0.0
230
1.0
  0
ELLIPSE
  5
6AD
100
AcDbEntity
  8
0
370
    35
390
0
 62
     7
100
AcDbEllipse
 10
53.212891
 20
89.787476
 30
0.0
 11
2.220306396484375
 21
0.3644189834594727
 31
0.0
210
0.0
220
0.0
230
1.0
 40
0.335585
 41
0.0624239502222713
 42
0.364251366403084
  0
ELLIPSE
  5
6AE
100
AcDbEntity
  8
0
370
    35
390
0
 62
     7
100
AcDbEllipse
 10
53.212891
 20
89.787476
 30
0.0
 11
2.220306396484375
 21
0.3644189834594727
 31
0.0
210
0.0
220
0.0
230
1.0
 40
0.335585
 41
0.364251366403084
 42
2.7773152926702522
  0
ELLIPSE
  5
6AF
100
AcDbEntity
  8
0
370
    35
390
0
 62
     7
100
AcDbEllipse
 10
53.212891
 20
89.787476
 30
0.0
 11
2.220306396484375
 21
0.3644189834594727
 31
0.0
210
0.0
220
0.0
230
1.0
 40
0.335585
 41
2.7773152926702522
 42
3.079177012479847
  0
ELLIPSE
  5
6B0
100
AcDbEntity
  8
0
370
    35
390
0
 62
     7
100
AcDbEllipse
 10
188.751587
 20
51.056847
 30
0.0
 11
2.220306396484375
 21
0.3644189834594727
 31
0.0
210
0.0
220
0.0
230
1.0
 40
0.335585
 41
0.0624239502230939
 42
0.364251366403084
  0
ELLIPSE
  5
6B1
100
AcDbEntity
  8
0
370
    35
390
0
 62
     7
100
AcDbEllipse
 10
188.751587
 20
51.056847
 30
0.0
 11
2.220306396484375
 21
0.3644189834594727
 31
0.0
210
0.0
220
0.0
230
1.0
 40
0.335585
 41
0.364251366403084
 42
2.777315292670238
  0
ELLIPSE
  5
6B2
100
AcDbEntity
  8
0
370
    35
390
0
 62
     7
100
AcDbEllipse
 10
188.751587
 20
51.056847
 30
0.0
 11
2.220306396484375
 21
0.3644189834594727
 31
0.0
210
0.0
220
0.0
230
1.0
 40
0.335585
 41
2.777315292670238
 42
3.0791770124783082
  0
LINE
  5
6B3
100
AcDbEntity
  8
0
370
    35
390
0
 62
     7
100
AcDbLine
 10
-7.115906
 20
120.886139
 30
0.0
 11
276.283203
 21
39.903915
 31
0.0
210
0.0
220
0.0
230
1.0
  0
LINE
  5
6B4
100
AcDbEntity
  8
0
370
    35
390
0
 62
     7
 48
0.006993
100
AcDbLine
 10
-7.115906
 20
120.886139
 30
0.0
 11
-7.23996
 21
120.635452
 31
0.0
210
0.0
220
0.0
230
1.0
  0
LINE
  5
6B5
100
AcDbEntity
  8
0
370
    35
390
0
 62
     7
100
AcDbLine
 10
-7.23996
 20
120.635452
 30
0.0
 11
275.957703
 21
39.710793
 31
0.0
210
0.0
220
0.0
230
1.0
  0
LINE
  5
6B6
100
AcDbEntity
  8
0
370
    35
390
0
 62
     7
 48
0.004668
100
AcDbLine
 10
-7.23996
 20
120.635452
 30
0.0
 11
-7.209717
 21
120.45118
 31
0.0
210
0.0
220
0.0
230
1.0
  0
LINE
  5
6B7
100
AcDbEntity
  8
0
370
    35
390
0
 62
     7
100
AcDbLine
 10
-4.097626
 20
118.674355
 30
0.0
 11
270.117981
 21
40.316341
 31
0.0
210
0.0
220
0.0
230
1.0
  0
LINE
  5
6B8
100
AcDbEntity
  8
0
370
    35
390
0
 62
     7
100
AcDbLine
 10
-29.44873
 20
111.525826
 30
0.0
 11
253.950363
 21
30.543596
 31
0.0
210
0.0
220
0.0
230
1.0
  0
LINE
  5
6B9
100
AcDbEntity
  8
0
370
    35
390
0
 62
     7
100
AcDbLine
 10
-31.620605
 20
110.416832
 30
0.0
 11
251.778519
 21
29.434605
 31
0.0
210
0.0
220
0.0
230
1.0
  0
LINE
  5
6BA
100
AcDbEntity
  8
0
370
    35
390
0
 62
     7
 48
0.007065
100
AcDbLine
 10
-31.620605
 20
110.416832
 30
0.0
 11
-31.574829
 21
110.137962
 31
0.0
210
0.0
220
0.0
230
1.0
  0
LINE
  5
6BB
100
AcDbEntity
  8
0
370
    35
390
0
 62
     7
100
AcDbLine
 10
-31.574829
 20
110.137962
 30
0.0
 11
251.82428
 21
29.155733
 31
0.0
210
0.0
220
0.0
230
1.0
  0
LINE
  5
6BC
100
AcDbEntity
  8
0
370
    35
390
0
 62
     7
 48
0.006284
100
AcDbLine
 10
-31.574829
 20
110.137962
 30
0.0
 11
-31.806641
 21
110.040794
 31
0.0
210
0.0
220
0.0
230
1.0
  0
LINE
  5
6BD
100
AcDbEntity
  8
0
370
    35
390
0
 62
     7
100
AcDbLine
 10
-31.806641
 20
110.040794
 30
0.0
 11
251.592453
 21
29.058567
 31
0.0
210
0.0
220
0.0
230
1.0
  0
LINE
  5
6BE
100
AcDbEntity
  8
0
370
    35
390
0
 62
     7
 48
0.006993
100
AcDbLine
 10
-31.806641
 20
110.040794
 30
0.0
 11
-31.930695
 21
109.7901
 31
0.0
210
0.0
220
0.0
230
1.0
  0
LINE
  5
6BF
100
AcDbEntity
  8
0
370
    35
390
0
 62
     7
100
AcDbLine
 10
-31.930695
 20
109.7901
 30
0.0
 11
251.468414
 21
28.807877
 31
0.0
210
0.0
220
0.0
230
1.0
  0
LINE
  5
6C0
100
AcDbEntity
  8
0
370
    35
390
0
 62
     7
100
AcDbLine
 10
-29.581085
 20
95.474693
 30
0.0
 11
253.818024
 21
14.492464
 31
0.0
210
0.0
220
0.0
230
1.0
  0
LINE
  5
6C1
100
AcDbEntity
  8
0
370
    35
390
0
 62
     7
 48
0.004536
100
AcDbLine
 10
-29.147797
 20
95.350876
 30
0.0
 11
-29.118408
 21
95.171844
 31
0.0
210
0.0
220
0.0
230
1.0
  0
LINE
  5
6C2
100
AcDbEntity
  8
0
370
    35
390
0
 62
     7
100
AcDbLine
 10
-29.118408
 20
95.171844
 30
0.0
 11
254.280685
 21
14.189621
 31
0.0
210
0.0
220
0.0
230
1.0
  0
ELLIPSE
  5
6C3
100
AcDbEntity
  8
0
370
    35
390
0
 62
     7
100
AcDbEllipse
 10
188.980453
 20
49.662491
 30
0.0
 11
3.70050048828125
 21
0.6073646545410156
 31
0.0
210
0.0
220
0.0
230
1.0
 40
0.335585
 41
1.0471873852919684
 42
2.094399537619259
  0
ELLIPSE
  5
6C4
100
AcDbEntity
  8
0
370
    35
390
0
 62
     7
100
AcDbEllipse
 10
53.441742
 20
88.39312
 30
0.0
 11
3.70050048828125
 21
0.6073646545410156
 31
0.0
210
0.0
220
0.0
230
1.0
 40
0.335585
 41
1.047187385291906
 42
2.0943995376192603
  0
LINE
  5
6C5
100
AcDbEntity
  8
0
370
    35
390
0
 62
     7
 48
0.362674
100
AcDbLine
 10
-29.581085
 20
95.474693
 30
0.0
 11
-31.930695
 21
109.7901
 31
0.0
210
0.0
220
0.0
230
1.0
  0
LINE
  5
6C6
100
AcDbEntity
  8
0
370
    35
390
0
 62
     7
100
AcDbLine
 10
-31.496552
 20
110.667526
 30
0.0
 11
251.902557
 21
29.685297
 31
0.0
210
0.0
220
0.0
230
1.0
  0
LINE
  5
6C7
100
AcDbEntity
  8
0
370
    35
390
0
 62
     7
 48
0.006993
100
AcDbLine
 10
-31.620605
 20
110.416832
 30
0.0
 11
-31.496552
 21
110.667526
 31
0.0
210
0.0
220
0.0
230
1.0
  0
LINE
  5
6C8
100
AcDbEntity
  8
0
370
    35
390
0
 62
     7
 48
0.05551
100
AcDbLine
 10
-31.496552
 20
110.667526
 30
0.0
 11
-29.44873
 21
111.525826
 31
0.0
210
0.0
220
0.0
230
1.0
  0
LINE
  5
6C9
100
AcDbEntity
  8
0
370
    35
390
0
 62
     7
100
AcDbLine
 10
-4.085876
 20
118.602745
 30
0.0
 11
270.021149
 21
40.275757
 31
0.0
210
0.0
220
0.0
230
1.0
  0
LINE
  5
6CA
100
AcDbEntity
  8
0
370
    35
390
0
 62
     7
100
AcDbLine
 10
-5.068085
 20
121.744438
 30
0.0
 11
278.330994
 21
40.762215
 31
0.0
210
0.0
220
0.0
230
1.0
  0
LINE
  5
6CB
100
AcDbEntity
  8
0
370
    35
390
0
 62
     7
 48
0.05551
100
AcDbLine
 10
-7.115906
 20
120.886139
 30
0.0
 11
-5.068085
 21
121.744438
 31
0.0
210
0.0
220
0.0
230
1.0
  0
ELLIPSE
  5
6CC
100
AcDbEntity
  8
0
370
    35
390
0
 62
     7
100
AcDbEllipse
 10
356.029114
 20
-31.409576
 30
0.0
 11
-0.140380859375
 21
0.479888916015625
 31
0.0
210
0.0
220
0.0
230
1.0
 40
0.64734
 41
2.5830699322400732
 42
3.1414929275409089
  0
LINE
  5
6CD
100
AcDbEntity
  8
0
370
    35
390
0
 62
     7
 48
0.011797
100
AcDbLine
 10
355.983521
 20
-31.8647
 30
0.0
 11
355.565674
 21
-31.645477
 31
0.0
210
0.0
220
0.0
230
1.0
  0
LINE
  5
6CE
100
AcDbEntity
  8
0
370
    35
390
0
 62
     7
 48
0.004287
100
AcDbLine
 10
355.582764
 20
-31.474838
 30
0.0
 11
355.565674
 21
-31.645477
 31
0.0
210
0.0
220
0.0
230
1.0
  0
LINE
  5
6CF
100
AcDbEntity
  8
0
370
    35
390
0
 62
     7
 48
0.011798
100
AcDbLine
 10
333.943787
 20
-20.302505
 30
0.0
 11
333.525879
 21
-20.083298
 31
0.0
210
0.0
220
0.0
230
1.0
  0
ELLIPSE
  5
6D0
100
AcDbEntity
  8
0
370
    35
390
0
 62
     7
100
AcDbEllipse
 10
333.571472
 20
-19.628174
 30
0.0
 11
-0.140380859375
 21
0.479888916015625
 31
0.0
210
0.0
220
0.0
230
1.0
 40
0.64734
 41
1.0297268979651082
 42
2.5830699322401016
  0
LINE
  5
6D1
100
AcDbEntity
  8
0
370
    35
390
0
 62
     7
100
AcDbLine
 10
337.219543
 20
26.595871
 30
0.0
 11
333.232849
 21
-19.458908
 31
0.0
210
0.0
220
0.0
230
1.0
  0
ELLIPSE
  5
6D2
100
AcDbEntity
  8
0
370
    35
390
0
 62
     7
100
AcDbEllipse
 10
337.388794
 20
26.511246
 30
0.0
 11
-0.0701904296875
 21
0.2399444580078125
 31
0.0
210
0.0
220
0.0
230
1.0
 40
0.64734
 41
6.2830609448075672
 42
7.3129122051447224
  0
ELLIPSE
  5
6D3
100
AcDbEntity
  8
0
370
    35
390
0
 62
     7
100
AcDbEllipse
 10
692.536072
 20
67.039581
 30
0.0
 11
0.140380859375
 21
-0.479888916015625
 31
0.0
210
0.0
220
0.0
230
1.0
 40
0.64734
 41
6.2830855811306989
 42
6.4945935751150321
  0
ELLIPSE
  5
6D4
100
AcDbEntity
  8
0
370
    35
390
0
 62
     7
100
AcDbEllipse
 10
692.536072
 20
67.039581
 30
0.0
 11
0.140380859375
 21
-0.479888916015625
 31
0.0
210
0.0
220
0.0
230
1.0
 40
0.64734
 41
5.7246625858298801
 42
6.2830855811306989
  0
LINE
  5
6D5
100
AcDbEntity
  8
0
370
    13
390
0
 62
     7
100
AcDbLine
 10
692.490479
 20
66.584457
 30
0.0
 11
355.983521
 21
-31.8647
 31
0.0
210
0.0
220
0.0
230
1.0
  0
LINE
  5
6D6
100
AcDbEntity
  8
0
370
    35
390
0
 62
     7
100
AcDbLine
 10
692.072632
 20
66.80368
 30
0.0
 11
355.565674
 21
-31.645477
 31
0.0
210
0.0
220
0.0
230
1.0
  0
LINE
  5
6D7
100
AcDbEntity
  8
0
370
    35
390
0
 62
     7
 48
0.011797
100
AcDbLine
 10
692.490479
 20
66.584457
 30
0.0
 11
692.072632
 21
66.80368
 31
0.0
210
0.0
220
0.0
230
1.0
  0
LINE
  5
6D8
100
AcDbEntity
  8
0
370
    35
390
0
 62
     7
100
AcDbLine
 10
670.450745
 20
78.146652
 30
0.0
 11
333.943787
 21
-20.302505
 31
0.0
210
0.0
220
0.0
230
1.0
  0
LINE
  5
6D9
100
AcDbEntity
  8
0
370
    35
390
0
 62
     7
 48
0.002037
100
AcDbLine
 10
670.450745
 20
78.146652
 30
0.0
 11
670.458862
 21
78.227707
 31
0.0
210
0.0
220
0.0
230
1.0
  0
LINE
  5
6DA
100
AcDbEntity
  8
0
370
    13
390
0
 62
     7
100
AcDbLine
 10
670.032837
 20
78.365868
 30
0.0
 11
333.525879
 21
-20.083298
 31
0.0
210
0.0
220
0.0
230
1.0
  0
LINE
  5
6DB
100
AcDbEntity
  8
0
370
    35
390
0
 62
     7
 48
0.011798
100
AcDbLine
 10
670.450745
 20
78.146652
 30
0.0
 11
670.032837
 21
78.365868
 31
0.0
210
0.0
220
0.0
230
1.0
  0
ELLIPSE
  5
6DC
100
AcDbEntity
  8
0
370
    35
390
0
 62
     7
100
AcDbEllipse
 10
670.07843
 20
78.820992
 30
0.0
 11
0.140380859375
 21
-0.479888916015625
 31
0.0
210
0.0
220
0.0
230
1.0
 40
0.64734
 41
4.1713195515549293
 42
5.7246625858298801
  0
LINE
  5
6DD
100
AcDbEntity
  8
0
370
    13
390
0
 62
     7
100
AcDbLine
 10
669.739807
 20
78.990257
 30
0.0
 11
333.232849
 21
-19.458908
 31
0.0
210
0.0
220
0.0
230
1.0
  0
LINE
  5
6DE
100
AcDbEntity
  8
0
370
    13
390
0
 62
     7
100
AcDbLine
 10
673.726501
 20
125.045029
 30
0.0
 11
337.219543
 21
26.595871
 31
0.0
210
0.0
220
0.0
230
1.0
  0
LINE
  5
6DF
100
AcDbEntity
  8
0
370
    35
390
0
 62
     7
100
AcDbLine
 10
673.726501
 20
125.045029
 30
0.0
 11
669.739807
 21
78.990257
 31
0.0
210
0.0
220
0.0
230
1.0
  0
LINE
  5
6E0
100
AcDbEntity
  8
0
370
    35
390
0
 62
     7
 48
0.002037
100
AcDbLine
 10
692.072632
 20
66.80368
 30
0.0
 11
692.08075
 21
66.884735
 31
0.0
210
0.0
220
0.0
230
1.0
  0
ELLIPSE
  5
6E1
100
AcDbEntity
  8
0
370
    35
390
0
 62
     7
100
AcDbEllipse
 10
673.895752
 20
124.960403
 30
0.0
 11
-0.0701904296875
 21
0.2399444580078125
 31
0.0
210
0.0
220
0.0
230
1.0
 40
0.64734
 41
6.2830609448075672
 42
7.3129122051447224
  0
ELLIPSE
  5
6E2
100
AcDbEntity
  8
0
370
    35
390
0
 62
     7
100
AcDbEllipse
 10
673.895752
 20
124.960403
 30
0.0
 11
-0.0701904296875
 21
0.2399444580078125
 31
0.0
210
0.0
220
0.0
230
1.0
 40
0.64734
 41
5.8885885434929524
 42
6.2830609448075672
  0
LINE
  5
6E3
100
AcDbEntity
  8
0
370
    35
390
0
 62
     7
100
AcDbLine
 10
692.676453
 20
66.559692
 30
0.0
 11
356.169495
 21
-31.889465
 31
0.0
210
0.0
220
0.0
230
1.0
  0
LINE
  5
6E4
100
AcDbEntity
  8
0
370
    35
390
0
 62
     7
100
AcDbLine
 10
673.825623
 20
125.200348
 30
0.0
 11
337.318665
 21
26.75119
 31
0.0
210
0.0
220
0.0
230
1.0
  0
ELLIPSE
  5
6E5
100
AcDbEntity
  8
0
370
    13
390
0
 62
     7
100
AcDbEllipse
 10
355.841492
 20
-31.729553
 30
0.0
 11
-0.0928955078125
 21
-0.1771087646484375
 31
0.0
210
0.0
220
0.0
230
1.0
 40
0.646376
 41
0.5578533086483796
 42
1.2990366743724178
  0
ELLIPSE
  5
6E6
100
AcDbEntity
  8
0
370
    13
390
0
 62
     7
100
AcDbEllipse
 10
333.383789
 20
-19.948135
 30
0.0
 11
-0.0928955078125
 21
-0.1771087646484375
 31
0.0
210
0.0
220
0.0
230
1.0
 40
0.646376
 41
0.5578533086489754
 42
1.3267886447486259
  0
LINE
  5
6E7
100
AcDbEntity
  8
0
370
    13
390
0
 62
     7
 48
0.317004
100
AcDbLine
 10
333.365601
 20
-20.130188
 30
0.0
 11
344.594421
 21
-26.020889
 31
0.0
210
0.0
220
0.0
230
1.0
  0
LINE
  5
6E8
100
AcDbEntity
  8
0
370
    13
390
0
 62
     7
 48
0.317004
100
AcDbLine
 10
355.823242
 20
-31.911591
 30
0.0
 11
344.594421
 21
-26.020889
 31
0.0
210
0.0
220
0.0
230
1.0
  0
ELLIPSE
  5
6E9
100
AcDbEntity
  8
0
370
    13
390
0
 62
     7
100
AcDbEllipse
 10
337.194641
 20
26.481277
 30
0.0
 11
-0.19927978515625
 21
0.017242431640625
 31
0.0
210
0.0
220
0.0
230
1.0
 40
0.392574
 41
4.6379102254886879
 42
5.4931841386827855
  0
ELLIPSE
  5
6EA
100
AcDbEntity
  8
0
370
    13
390
0
 62
     7
100
AcDbEllipse
 10
337.228516
 20
26.46434
 30
0.0
 11
-0.0701904296875
 21
0.2399444580078125
 31
0.0
210
0.0
220
0.0
230
1.0
 40
0.64734
 41
6.2830609448075556
 42
7.3129122051447224
  0
ELLIPSE
  5
6EB
100
AcDbEntity
  8
0
370
    13
390
0
 62
     7
100
AcDbEllipse
 10
333.208008
 20
-19.573502
 30
0.0
 11
-0.19927978515625
 21
0.017242431640625
 31
0.0
210
0.0
220
0.0
230
1.0
 40
0.392574
 41
4.6316046808210602
 42
5.4931841386832962
  0
LINE
  5
6EC
100
AcDbEntity
  8
0
370
    13
390
0
 62
     7
100
AcDbLine
 10
337.059204
 20
26.548981
 30
0.0
 11
333.072571
 21
-19.505798
 31
0.0
210
0.0
220
0.0
230
1.0
  0
ELLIPSE
  5
6ED
100
AcDbEntity
  8
0
370
    13
390
0
 62
     7
100
AcDbEllipse
 10
333.411133
 20
-19.675064
 30
0.0
 11
-0.140380859375
 21
0.479888916015625
 31
0.0
210
0.0
220
0.0
230
1.0
 40
0.64734
 41
1.0297268979651648
 42
2.583069932240087
  0
ELLIPSE
  5
6EE
100
AcDbEntity
  8
0
370
    13
390
0
 62
     7
100
AcDbEllipse
 10
355.868835
 20
-31.456467
 30
0.0
 11
-0.140380859375
 21
0.479888916015625
 31
0.0
210
0.0
220
0.0
230
1.0
 40
0.64734
 41
2.583069932240087
 42
3.1414929275409205
  0
ELLIPSE
  5
6EF
100
AcDbEntity
  8
0
370
    13
390
0
 62
     7
100
AcDbEllipse
 10
336.423828
 20
26.228928
 30
0.0
 11
-0.0701904296875
 21
0.2399444580078125
 31
0.0
210
0.0
220
0.0
230
1.0
 40
0.64734
 41
6.2830609448075672
 42
7.3129122051447224
  0
LINE
  5
6F0
100
AcDbEntity
  8
0
370
    13
390
0
 62
     7
 48
0.020961
100
AcDbLine
 10
337.059204
 20
26.548981
 30
0.0
 11
336.254517
 21
26.313553
 31
0.0
210
0.0
220
0.0
230
1.0
  0
LINE
  5
6F1
100
AcDbEntity
  8
0
370
    13
390
0
 62
     7
 48
0.020961
100
AcDbLine
 10
355.823242
 20
-31.911591
 30
0.0
 11
355.018555
 21
-32.147018
 31
0.0
210
0.0
220
0.0
230
1.0
  0
ELLIPSE
  5
6F2
100
AcDbEntity
  8
0
370
    13
390
0
 62
     7
100
AcDbEllipse
 10
355.064148
 20
-31.691895
 30
0.0
 11
-0.140380859375
 21
0.479888916015625
 31
0.0
210
0.0
220
0.0
230
1.0
 40
0.64734
 41
2.583069932240087
 42
3.1414929275409205
  0
LINE
  5
6F3
100
AcDbEntity
  8
0
370
    13
390
0
 62
     7
 48
0.317004
100
AcDbLine
 10
355.018555
 20
-32.147018
 30
0.0
 11
343.789734
 21
-26.256317
 31
0.0
210
0.0
220
0.0
230
1.0
  0
LINE
  5
6F4
100
AcDbEntity
  8
0
370
    13
390
0
 62
     7
 48
0.020961
100
AcDbLine
 10
333.365601
 20
-20.130188
 30
0.0
 11
332.560913
 21
-20.365616
 31
0.0
210
0.0
220
0.0
230
1.0
  0
LINE
  5
6F5
100
AcDbEntity
  8
0
370
    13
390
0
 62
     7
 48
0.317004
100
AcDbLine
 10
332.560913
 20
-20.365616
 30
0.0
 11
343.789734
 21
-26.256317
 31
0.0
210
0.0
220
0.0
230
1.0
  0
LINE
  5
6F6
100
AcDbEntity
  8
0
370
    13
390
0
 62
     7
 48
0.020961
100
AcDbLine
 10
333.072571
 20
-19.505798
 30
0.0
 11
332.267883
 21
-19.741226
 31
0.0
210
0.0
220
0.0
230
1.0
  0
ELLIPSE
  5
6F7
100
AcDbEntity
  8
0
370
    13
390
0
 62
     7
100
AcDbEllipse
 10
332.606445
 20
-19.910492
 30
0.0
 11
-0.140380859375
 21
0.479888916015625
 31
0.0
210
0.0
220
0.0
230
1.0
 40
0.64734
 41
1.0297268979651648
 42
2.583069932240087
  0
LINE
  5
6F8
100
AcDbEntity
  8
0
370
    13
390
0
 62
     7
100
AcDbLine
 10
336.254517
 20
26.313553
 30
0.0
 11
332.267883
 21
-19.741226
 31
0.0
210
0.0
220
0.0
230
1.0
  0
ELLIPSE
  5
6F9
100
AcDbEntity
  8
0
370
    13
390
0
 62
     7
100
AcDbEllipse
 10
355.036804
 20
-31.964966
 30
0.0
 11
-0.0928955078125
 21
-0.1771087646484375
 31
0.0
210
0.0
220
0.0
230
1.0
 40
0.646376
 41
0.0001153078130518
 42
0.5578533086489752
  0
ELLIPSE
  5
6FA
100
AcDbEntity
  8
0
370
    13
390
0
 62
     7
100
AcDbEllipse
 10
332.579102
 20
-20.183563
 30
0.0
 11
-0.0928955078125
 21
-0.1771087646484375
 31
0.0
210
0.0
220
0.0
230
1.0
 40
0.646376
 41
0.000115307813052
 42
0.5578533086489754
  0
ELLIPSE
  5
6FB
100
AcDbEntity
  8
0
370
    13
390
0
 62
     7
100
AcDbEllipse
 10
336.389954
 20
26.24585
 30
0.0
 11
-0.19927978515625
 21
0.017242431640625
 31
0.0
210
0.0
220
0.0
230
1.0
 40
0.392574
 41
5.4931841386827855
 42
6.2785823020805562
  0
ELLIPSE
  5
6FC
100
AcDbEntity
  8
0
370
    13
390
0
 62
     7
100
AcDbEllipse
 10
332.40332
 20
-19.808929
 30
0.0
 11
-0.19927978515625
 21
0.017242431640625
 31
0.0
210
0.0
220
0.0
230
1.0
 40
0.392574
 41
5.4931841386827776
 42
6.2785823020805482
  0
ARC
  5
6FD
100
AcDbEntity
  8
0
370
    35
390
0
 62
     7
100
AcDbCircle
 10
337.219666
 20
26.498276
 30
0.0
 40
0.214882
210
0.0
220
0.0
230
1.0
100
AcDbArc
 50
79.330571
 51
106.578606
  0
ARC
  5
6FE
100
AcDbEntity
  8
0
370
    35
390
0
 62
     7
100
AcDbCircle
 10
355.915283
 20
-31.617752
 30
0.0
 40
0.332156
210
0.0
220
0.0
230
1.0
100
AcDbArc
 50
286.425844
 51
302.664114
  0
LINE
  5
6FF
100
AcDbEntity
  8
0
370
    35
390
0
 62
     7
 48
0.02096
100
AcDbLine
 10
337.158325
 20
26.704285
 30
0.0
 11
336.353638
 21
26.468872
 31
0.0
210
0.0
220
0.0
230
1.0
  0
LINE
  5
700
100
AcDbEntity
  8
0
370
    35
390
0
 62
     7
 48
0.02096
100
AcDbLine
 10
356.009155
 20
-31.936371
 30
0.0
 11
355.204468
 21
-32.171783
 31
0.0
210
0.0
220
0.0
230
1.0
  0
LINE
  5
701
100
AcDbEntity
  8
0
370
    35
390
0
 62
     7
100
AcDbLine
 10
354.943909
 20
-32.14209
 30
0.0
 11
332.486206
 21
-20.360672
 31
0.0
210
0.0
220
0.0
230
1.0
  0
ARC
  5
702
100
AcDbEntity
  8
0
370
    35
390
0
 62
     7
100
AcDbCircle
 10
336.421265
 20
26.248627
 30
0.0
 40
0.230598
210
0.0
220
0.0
230
1.0
100
AcDbArc
 50
107.061153
 51
176.317345
  0
LINE
  5
703
100
AcDbEntity
  8
0
370
    35
390
0
 62
     7
100
AcDbLine
 10
336.190735
 20
26.263458
 30
0.0
 11
332.204102
 21
-19.791321
 31
0.0
210
0.0
220
0.0
230
1.0
  0
POLYLINE
  5
704
100
AcDbEntity
  8
0
370
    35
390
0
 62
     7
100
AcDb2dPolyline
 66
     1
 10
0.0
 20
0.0
 30
0.0
 71
     5
  0
VERTEX
  5
705
100
AcDbEntity
  8
0
370
     0
390
0
100
AcDbVertex
100
AcDb2dVertex
 10
332.486206
 20
-20.360672
 30
0.0
  0
VERTEX
  5
706
100
AcDbEntity
  8
0
370
     0
390
0
100
AcDbVertex
100
AcDb2dVertex
 10
332.385742
 20
-20.287903
 30
0.0
  0
VERTEX
  5
707
100
AcDbEntity
  8
0
370
     0
390
0
100
AcDbVertex
100
AcDb2dVertex
 10
332.277344
 20
-20.142776
 30
0.0
  0
VERTEX
  5
708
100
AcDbEntity
  8
0
370
     0
390
0
100
AcDbVertex
100
AcDb2dVertex
 10
332.21582
 20
-19.97229
 30
0.0
  0
VERTEX
  5
709
100
AcDbEntity
  8
0
370
     0
390
0
100
AcDbVertex
100
AcDb2dVertex
 10
332.204102
 20
-19.791321
 30
0.0
  0
SEQEND
  5
70A
100
AcDbEntity
  8
0
370
     0
390
0
  0
ARC
  5
70B
100
AcDbEntity
  8
0
370
    35
390
0
 62
     7
100
AcDbCircle
 10
355.111511
 20
-31.835144
 30
0.0
 40
0.349468
210
0.0
220
0.0
230
1.0
100
AcDbArc
 50
241.3621
 51
285.441382
  0
LINE
  5
70C
100
AcDbEntity
  8
0
370
    35
390
0
 62
     7
 48
0.004287
100
AcDbLine
 10
334.146484
 20
-20.408844
 30
0.0
 11
334.163574
 21
-20.238205
 31
0.0
210
0.0
220
0.0
230
1.0
  0
LINE
  5
70D
100
AcDbEntity
  8
0
370
    35
390
0
 62
     7
100
AcDbLine
 10
355.362976
 20
-31.539139
 30
0.0
 11
334.146484
 21
-20.408844
 31
0.0
210
0.0
220
0.0
230
1.0
  0
LINE
  5
70E
100
AcDbEntity
  8
0
370
    35
390
0
 62
     7
 48
0.002037
100
AcDbLine
 10
670.653442
 20
78.040314
 30
0.0
 11
670.66156
 21
78.121368
 31
0.0
210
0.0
220
0.0
230
1.0
  0
LINE
  5
70F
100
AcDbEntity
  8
0
370
    35
390
0
 62
     7
100
AcDbLine
 10
334.146484
 20
-20.408844
 30
0.0
 11
670.653442
 21
78.040314
 31
0.0
210
0.0
220
0.0
230
1.0
  0
LINE
  5
710
100
AcDbEntity
  8
0
370
    35
390
0
 62
     7
100
AcDbLine
 10
691.869934
 20
66.910019
 30
0.0
 11
670.653442
 21
78.040314
 31
0.0
210
0.0
220
0.0
230
1.0
  0
LINE
  5
711
100
AcDbEntity
  8
0
370
    35
390
0
 62
     7
100
AcDbLine
 10
355.362976
 20
-31.539139
 30
0.0
 11
691.869934
 21
66.910019
 31
0.0
210
0.0
220
0.0
230
1.0
  0
LINE
  5
712
100
AcDbEntity
  8
0
370
    35
390
0
 62
     7
 48
0.002037
100
AcDbLine
 10
691.869934
 20
66.910019
 30
0.0
 11
691.878052
 21
66.991074
 31
0.0
210
0.0
220
0.0
230
1.0
  0
ELLIPSE
  5
713
100
AcDbEntity
  8
0
370
    13
390
0
 62
     7
100
AcDbEllipse
 10
670.197388
 20
78.590721
 30
0.0
 11
0.0928955078125
 21
0.1771087646484375
 31
0.0
210
0.0
220
0.0
230
1.0
 40
0.646376
 41
3.1417079614034411
 42
3.6994459622393645
  0
ELLIPSE
  5
714
100
AcDbEntity
  8
0
370
    13
390
0
 62
     7
100
AcDbEllipse
 10
692.655029
 20
66.809311
 30
0.0
 11
0.0928955078125
 21
0.1771087646484375
 31
0.0
210
0.0
220
0.0
230
1.0
 40
0.646376
 41
3.1417079614028456
 42
3.699445962238769
  0
LINE
  5
715
100
AcDbEntity
  8
0
370
    13
390
0
 62
     7
 48
0.317006
100
AcDbLine
 10
692.636841
 20
66.627258
 30
0.0
 11
681.407959
 21
72.517975
 31
0.0
210
0.0
220
0.0
230
1.0
  0
LINE
  5
716
100
AcDbEntity
  8
0
370
    13
390
0
 62
     7
 48
0.317004
100
AcDbLine
 10
670.179138
 20
78.408676
 30
0.0
 11
681.407959
 21
72.517975
 31
0.0
210
0.0
220
0.0
230
1.0
  0
ELLIPSE
  5
717
100
AcDbEntity
  8
0
370
    13
390
0
 62
     7
100
AcDbEllipse
 10
692.682373
 20
67.082382
 30
0.0
 11
0.140380859375
 21
-0.479888916015625
 31
0.0
210
0.0
220
0.0
230
1.0
 40
0.64734
 41
5.7246625858298801
 42
6.2830855811306892
  0
ELLIPSE
  5
718
100
AcDbEntity
  8
0
370
    13
390
0
 62
     7
100
AcDbEllipse
 10
670.021545
 20
78.965355
 30
0.0
 11
0.19927978515625
 21
-0.017242431640625
 31
0.0
210
0.0
220
0.0
230
1.0
 40
0.392574
 41
2.3515914850929933
 42
3.1369896484904634
  0
ELLIPSE
  5
719
100
AcDbEntity
  8
0
370
    13
390
0
 62
     7
100
AcDbEllipse
 10
670.224731
 20
78.863792
 30
0.0
 11
0.140380859375
 21
-0.479888916015625
 31
0.0
210
0.0
220
0.0
230
1.0
 40
0.64734
 41
4.1713195515549293
 42
5.7246625858298801
  0
ELLIPSE
  5
71A
100
AcDbEntity
  8
0
370
    13
390
0
 62
     7
100
AcDbEllipse
 10
674.00824
 20
125.020134
 30
0.0
 11
0.19927978515625
 21
-0.017242431640625
 31
0.0
210
0.0
220
0.0
230
1.0
 40
0.392574
 41
2.3515914850941892
 42
3.1369896484916699
  0
LINE
  5
71B
100
AcDbEntity
  8
0
370
    13
390
0
 62
     7
100
AcDbLine
 10
673.872803
 20
125.087837
 30
0.0
 11
669.886108
 21
79.033058
 31
0.0
210
0.0
220
0.0
230
1.0
  0
ELLIPSE
  5
71C
100
AcDbEntity
  8
0
370
    13
390
0
 62
     7
100
AcDbEllipse
 10
674.042114
 20
125.003204
 30
0.0
 11
0.0701904296875
 21
-0.2399444580078125
 31
0.0
210
0.0
220
0.0
230
1.0
 40
0.64734
 41
3.1414682912177589
 42
4.1713195515549018
  0
LINE
  5
71D
100
AcDbEntity
  8
0
370
    13
390
0
 62
     7
 48
0.02096
100
AcDbLine
 10
673.872803
 20
125.087837
 30
0.0
 11
674.67749
 21
125.323257
 31
0.0
210
0.0
220
0.0
230
1.0
  0
ELLIPSE
  5
71E
100
AcDbEntity
  8
0
370
    13
390
0
 62
     7
100
AcDbEllipse
 10
674.846802
 20
125.238625
 30
0.0
 11
0.0701904296875
 21
-0.2399444580078125
 31
0.0
210
0.0
220
0.0
230
1.0
 40
0.64734
 41
3.141468291217747
 42
4.1713195515549018
  0
LINE
  5
71F
100
AcDbEntity
  8
0
370
    13
390
0
 62
     7
 48
0.02096
100
AcDbLine
 10
669.886108
 20
79.033058
 30
0.0
 11
670.690796
 21
79.268478
 31
0.0
210
0.0
220
0.0
230
1.0
  0
LINE
  5
720
100
AcDbEntity
  8
0
370
    13
390
0
 62
     7
100
AcDbLine
 10
674.67749
 20
125.323257
 30
0.0
 11
670.690796
 21
79.268478
 31
0.0
210
0.0
220
0.0
230
1.0
  0
LINE
  5
721
100
AcDbEntity
  8
0
370
    13
390
0
 62
     7
 48
0.02096
100
AcDbLine
 10
670.179138
 20
78.408676
 30
0.0
 11
670.983826
 21
78.644096
 31
0.0
210
0.0
220
0.0
230
1.0
  0
ELLIPSE
  5
722
100
AcDbEntity
  8
0
370
    13
390
0
 62
     7
100
AcDbEllipse
 10
671.029419
 20
79.09922
 30
0.0
 11
0.140380859375
 21
-0.479888916015625
 31
0.0
210
0.0
220
0.0
230
1.0
 40
0.64734
 41
4.1713195515549293
 42
5.7246625858298801
  0
LINE
  5
723
100
AcDbEntity
  8
0
370
    13
390
0
 62
     7
 48
0.317004
100
AcDbLine
 10
670.983826
 20
78.644096
 30
0.0
 11
682.212646
 21
72.753387
 31
0.0
210
0.0
220
0.0
230
1.0
  0
LINE
  5
724
100
AcDbEntity
  8
0
370
    13
390
0
 62
     7
 48
0.020961
100
AcDbLine
 10
692.636841
 20
66.627258
 30
0.0
 11
693.441528
 21
66.862686
 31
0.0
210
0.0
220
0.0
230
1.0
  0
LINE
  5
725
100
AcDbEntity
  8
0
370
    13
390
0
 62
     7
 48
0.317006
100
AcDbLine
 10
693.441528
 20
66.862686
 30
0.0
 11
682.212646
 21
72.753387
 31
0.0
210
0.0
220
0.0
230
1.0
  0
ELLIPSE
  5
726
100
AcDbEntity
  8
0
370
    13
390
0
 62
     7
100
AcDbEllipse
 10
693.487061
 20
67.31781
 30
0.0
 11
0.140380859375
 21
-0.479888916015625
 31
0.0
210
0.0
220
0.0
230
1.0
 40
0.64734
 41
5.7246625858298801
 42
6.2830855811306892
  0
ELLIPSE
  5
727
100
AcDbEntity
  8
0
370
    13
390
0
 62
     7
100
AcDbEllipse
 10
671.002075
 20
78.826141
 30
0.0
 11
0.0928955078125
 21
0.1771087646484375
 31
0.0
210
0.0
220
0.0
230
1.0
 40
0.646376
 41
3.6994459622387694
 42
5.2702422890336669
  0
ELLIPSE
  5
728
100
AcDbEntity
  8
0
370
    13
390
0
 62
     7
100
AcDbEllipse
 10
693.459717
 20
67.044739
 30
0.0
 11
0.0928955078125
 21
0.1771087646484375
 31
0.0
210
0.0
220
0.0
230
1.0
 40
0.646376
 41
3.699445962238769
 42
5.270242289033666
  0
LINE
  5
729
100
AcDbEntity
  8
0
370
    13
390
0
 62
     7
100
AcDbLine
 10
693.606079
 20
67.08754
 30
0.0
 11
671.148376
 21
78.86895
 31
0.0
210
0.0
220
0.0
230
1.0
  0
ELLIPSE
  5
72A
100
AcDbEntity
  8
0
370
    13
390
0
 62
     7
100
AcDbEllipse
 10
698.832214
 20
112.703651
 30
0.0
 11
-0.0928955078125
 21
-0.1771087646484375
 31
0.0
210
0.0
220
0.0
230
1.0
 40
0.646376
 41
2.1286496354438826
 42
3.1417079614028749
  0
ELLIPSE
  5
72B
100
AcDbEntity
  8
0
370
    13
390
0
 62
     7
100
AcDbEllipse
 10
674.851318
 20
125.284142
 30
0.0
 11
-0.0928955078125
 21
-0.1771087646484375
 31
0.0
210
0.0
220
0.0
230
1.0
 40
0.646376
 41
2.128649635443872
 42
3.1417079614028456
  0
LINE
  5
72C
100
AcDbEntity
  8
0
370
    13
390
0
 62
     7
100
AcDbLine
 10
698.978516
 20
112.746452
 30
0.0
 11
674.997681
 21
125.326942
 31
0.0
210
0.0
220
0.0
230
1.0
  0
ELLIPSE
  5
72D
100
AcDbEntity
  8
0
370
    13
390
0
 62
     7
100
AcDbEllipse
 10
698.861328
 20
112.639626
 30
0.0
 11
-0.19873046875
 21
0.0226287841796875
 31
0.0
210
0.0
220
0.0
230
1.0
 40
0.415136
 41
3.1415558131725354
 42
3.9332955688607543
  0
ELLIPSE
  5
72E
100
AcDbEntity
  8
0
370
    13
390
0
 62
     7
100
AcDbEllipse
 10
698.973938
 20
112.700943
 30
0.0
 11
0.0140380859375
 21
-0.0479888916015625
 31
0.0
210
0.0
220
0.0
230
1.0
 40
0.64734
 41
0.9948203129254701
 42
2.5830699322433559
  0
ELLIPSE
  5
72F
100
AcDbEntity
  8
0
370
    13
390
0
 62
     7
100
AcDbEllipse
 10
693.68927
 20
67.206726
 30
0.0
 11
-0.19873046875
 21
0.0226287841796875
 31
0.0
210
0.0
220
0.0
230
1.0
 40
0.415136
 41
3.1415558131725572
 42
3.9332955688607636
  0
LINE
  5
730
100
AcDbEntity
  8
0
370
    13
390
0
 62
     7
100
AcDbLine
 10
699.00769
 20
112.682426
 30
0.0
 11
693.835571
 21
67.249527
 31
0.0
210
0.0
220
0.0
230
1.0
  0
ELLIPSE
  5
731
100
AcDbEntity
  8
0
370
    13
390
0
 62
     7
100
AcDbEllipse
 10
693.633362
 20
67.360611
 30
0.0
 11
0.084228515625
 21
-0.287933349609375
 31
0.0
210
0.0
220
0.0
230
1.0
 40
0.64734
 41
5.7246625858296083
 42
7.2780056201056764
  0
ELLIPSE
  5
732
100
AcDbEntity
  8
0
370
    13
390
0
 62
     7
100
AcDbEllipse
 10
670.826294
 20
79.200775
 30
0.0
 11
0.19927978515625
 21
-0.017242431640625
 31
0.0
210
0.0
220
0.0
230
1.0
 40
0.392574
 41
0.7807951582980954
 42
2.351591485092992
  0
ELLIPSE
  5
733
100
AcDbEntity
  8
0
370
    13
390
0
 62
     7
100
AcDbEllipse
 10
671.17572
 20
79.142021
 30
0.0
 11
0.084228515625
 21
-0.287933349609375
 31
0.0
210
0.0
220
0.0
230
1.0
 40
0.64734
 41
4.1713195515561292
 42
5.7246625858290274
  0
ELLIPSE
  5
734
100
AcDbEntity
  8
0
370
    13
390
0
 62
     7
100
AcDbEllipse
 10
674.812927
 20
125.255554
 30
0.0
 11
0.19927978515625
 21
-0.017242431640625
 31
0.0
210
0.0
220
0.0
230
1.0
 40
0.392574
 41
0.7807951582981004
 42
2.3515914850929973
  0
LINE
  5
735
100
AcDbEntity
  8
0
370
    13
390
0
 62
     7
100
AcDbLine
 10
674.959229
 20
125.298355
 30
0.0
 11
670.972534
 21
79.243576
 31
0.0
210
0.0
220
0.0
230
1.0
  0
ELLIPSE
  5
736
100
AcDbEntity
  8
0
370
    13
390
0
 62
     7
100
AcDbEllipse
 10
674.993103
 20
125.281433
 30
0.0
 11
0.0140380859375
 21
-0.0479888916015625
 31
0.0
210
0.0
220
0.0
230
1.0
 40
0.64734
 41
2.5830699322360369
 42
4.1713195515507371
  0
LINE
  5
737
100
AcDbEntity
  8
0
370
    35
390
0
 62
     7
100
AcDbLine
 10
670.104492
 20
78.413605
 30
0.0
 11
692.562134
 21
66.632202
 31
0.0
210
0.0
220
0.0
230
1.0
  0
ARC
  5
738
100
AcDbEntity
  8
0
370
    35
390
0
 62
     7
100
AcDbCircle
 10
692.729797
 20
66.939407
 30
0.0
 40
0.349729
210
0.0
220
0.0
230
1.0
100
AcDbArc
 50
241.37852
 51
285.423623
  0
POLYLINE
  5
739
100
AcDbEntity
  8
0
370
    35
390
0
 62
     7
100
AcDb2dPolyline
 66
     1
 10
0.0
 20
0.0
 30
0.0
 71
     5
  0
VERTEX
  5
73A
100
AcDbEntity
  8
0
370
     0
390
0
100
AcDbVertex
100
AcDb2dVertex
 10
669.822327
 20
78.982964
 30
0.0
  0
VERTEX
  5
73B
100
AcDbEntity
  8
0
370
     0
390
0
100
AcDbVertex
100
AcDb2dVertex
 10
669.834106
 20
78.801994
 30
0.0
  0
VERTEX
  5
73C
100
AcDbEntity
  8
0
370
     0
390
0
100
AcDbVertex
100
AcDb2dVertex
 10
669.89563
 20
78.6315
 30
0.0
  0
VERTEX
  5
73D
100
AcDbEntity
  8
0
370
     0
390
0
100
AcDbVertex
100
AcDb2dVertex
 10
670.004028
 20
78.486382
 30
0.0
  0
VERTEX
  5
73E
100
AcDbEntity
  8
0
370
     0
390
0
100
AcDbVertex
100
AcDb2dVertex
 10
670.104492
 20
78.413605
 30
0.0
  0
SEQEND
  5
73F
100
AcDbEntity
  8
0
370
     0
390
0
  0
LINE
  5
740
100
AcDbEntity
  8
0
370
    35
390
0
 62
     7
100
AcDbLine
 10
673.809021
 20
125.037735
 30
0.0
 11
669.822327
 21
78.982964
 31
0.0
210
0.0
220
0.0
230
1.0
  0
ARC
  5
741
100
AcDbEntity
  8
0
370
    35
390
0
 62
     7
100
AcDbCircle
 10
674.03949
 20
125.022903
 30
0.0
 40
0.230598
210
0.0
220
0.0
230
1.0
100
AcDbArc
 50
107.061153
 51
176.317345
  0
LINE
  5
742
100
AcDbEntity
  8
0
370
    35
390
0
 62
     7
 48
0.020961
100
AcDbLine
 10
673.971924
 20
125.243149
 30
0.0
 11
674.776611
 21
125.478577
 31
0.0
210
0.0
220
0.0
230
1.0
  0
LINE
  5
743
100
AcDbEntity
  8
0
370
    35
390
0
 62
     7
 48
0.020961
100
AcDbLine
 10
692.822754
 20
66.602493
 30
0.0
 11
693.627441
 21
66.837921
 31
0.0
210
0.0
220
0.0
230
1.0
  0
LINE
  5
744
100
AcDbEntity
  8
0
370
    35
390
0
 62
     7
100
AcDbLine
 10
674.944214
 20
125.46125
 30
0.0
 11
698.92511
 21
112.880768
 31
0.0
210
0.0
220
0.0
230
1.0
  0
ARC
  5
745
100
AcDbEntity
  8
0
370
    35
390
0
 62
     7
100
AcDbCircle
 10
698.794922
 20
112.64846
 30
0.0
 40
0.266838
210
0.0
220
0.0
230
1.0
100
AcDbArc
 50
353.234693
 51
60.727089
  0
LINE
  5
746
100
AcDbEntity
  8
0
370
    35
390
0
 62
     7
100
AcDbLine
 10
699.060059
 20
112.616997
 30
0.0
 11
693.888
 21
67.184097
 31
0.0
210
0.0
220
0.0
230
1.0
  0
POLYLINE
  5
747
100
AcDbEntity
  8
0
370
    35
390
0
 62
     7
100
AcDb2dPolyline
 66
     1
 10
0.0
 20
0.0
 30
0.0
 71
     5
  0
VERTEX
  5
748
100
AcDbEntity
  8
0
370
     0
390
0
100
AcDbVertex
100
AcDb2dVertex
 10
693.627441
 20
66.837921
 30
0.0
  0
VERTEX
  5
749
100
AcDbEntity
  8
0
370
     0
390
0
100
AcDbVertex
100
AcDb2dVertex
 10
693.752014
 20
66.906296
 30
0.0
  0
VERTEX
  5
74A
100
AcDbEntity
  8
0
370
     0
390
0
100
AcDbVertex
100
AcDb2dVertex
 10
693.833801
 20
67.008408
 30
0.0
  0
VERTEX
  5
74B
100
AcDbEntity
  8
0
370
     0
390
0
100
AcDbVertex
100
AcDb2dVertex
 10
693.877686
 20
67.124191
 30
0.0
  0
VERTEX
  5
74C
100
AcDbEntity
  8
0
370
     0
390
0
100
AcDbVertex
100
AcDb2dVertex
 10
693.888
 20
67.184097
 30
0.0
  0
SEQEND
  5
74D
100
AcDbEntity
  8
0
370
     0
390
0
  0
ARC
  5
74E
100
AcDbEntity
  8
0
370
    35
390
0
 62
     7
100
AcDbCircle
 10
674.838989
 20
125.263054
 30
0.0
 40
0.224386
210
0.0
220
0.0
230
1.0
100
AcDbArc
 50
62.02587
 51
106.138251
  0
LINE
  5
74F
100
AcDbEntity
  8
0
370
    35
390
0
 62
     7
 48
0.002574
100
AcDbLine
 10
338.473022
 20
41.396545
 30
0.0
 11
338.462769
 21
41.294113
 31
0.0
210
0.0
220
0.0
230
1.0
  0
LINE
  5
750
100
AcDbEntity
  8
0
370
    35
390
0
 62
     7
 48
0.004734
100
AcDbLine
 10
338.473022
 20
41.396545
 30
0.0
 11
338.626343
 21
41.50769
 31
0.0
210
0.0
220
0.0
230
1.0
  0
LINE
  5
751
100
AcDbEntity
  8
0
370
    35
390
0
 62
     7
 48
0.02115
100
AcDbLine
 10
336.841248
 20
26.870117
 30
0.0
 11
337.653198
 21
27.107681
 31
0.0
210
0.0
220
0.0
230
1.0
  0
LINE
  5
752
100
AcDbEntity
  8
0
370
    35
390
0
 62
     7
 48
0.006693
100
AcDbLine
 10
336.814575
 20
26.603714
 30
0.0
 11
336.841248
 21
26.870117
 31
0.0
210
0.0
220
0.0
230
1.0
  0
LINE
  5
753
100
AcDbEntity
  8
0
370
    35
390
0
 62
     7
 48
0.006676
100
AcDbLine
 10
337.628418
 20
26.841812
 30
0.0
 11
337.653198
 21
27.107681
 31
0.0
210
0.0
220
0.0
230
1.0
  0
LINE
  5
754
100
AcDbEntity
  8
0
370
    35
390
0
 62
     7
 48
0.013709
100
AcDbLine
 10
338.626343
 20
41.50769
 30
0.0
 11
339.152649
 21
41.661682
 31
0.0
210
0.0
220
0.0
230
1.0
  0
LINE
  5
755
100
AcDbEntity
  8
0
370
    35
390
0
 62
     7
 48
0.001835
100
AcDbLine
 10
339.217651
 20
41.627579
 30
0.0
 11
339.152649
 21
41.661682
 31
0.0
210
0.0
220
0.0
230
1.0
  0
LINE
  5
756
100
AcDbEntity
  8
0
370
    35
390
0
 62
     7
 48
0.004704
100
AcDbLine
 10
339.000549
 20
41.550888
 30
0.0
 11
339.152649
 21
41.661682
 31
0.0
210
0.0
220
0.0
230
1.0
  0
LINE
  5
757
100
AcDbEntity
  8
0
370
    35
390
0
 62
     7
 48
0.013741
100
AcDbLine
 10
338.473022
 20
41.396545
 30
0.0
 11
339.000549
 21
41.550888
 31
0.0
210
0.0
220
0.0
230
1.0
  0
LINE
  5
758
100
AcDbEntity
  8
0
370
    35
390
0
 62
     7
 48
0.002582
100
AcDbLine
 10
338.990967
 20
41.448059
 30
0.0
 11
339.000549
 21
41.550888
 31
0.0
210
0.0
220
0.0
230
1.0
  0
LINE
  5
759
100
AcDbEntity
  8
0
370
    35
390
0
 62
     7
 48
0.028582
100
AcDbLine
 10
337.675171
 20
41.06369
 30
0.0
 11
338.772461
 21
41.38472
 31
0.0
210
0.0
220
0.0
230
1.0
  0
LINE
  5
75A
100
AcDbEntity
  8
0
370
    35
390
0
 62
     7
 48
0.001803
100
AcDbLine
 10
338.772461
 20
41.38472
 30
0.0
 11
338.836304
 21
41.351212
 31
0.0
210
0.0
220
0.0
230
1.0
  0
LINE
  5
75B
100
AcDbEntity
  8
0
370
    35
390
0
 62
     7
 48
0.028582
100
AcDbLine
 10
338.620361
 20
41.273941
 30
0.0
 11
337.523071
 21
40.952911
 31
0.0
210
0.0
220
0.0
230
1.0
  0
LINE
  5
75C
100
AcDbEntity
  8
0
370
    35
390
0
 62
     7
 48
0.004704
100
AcDbLine
 10
338.772461
 20
41.38472
 30
0.0
 11
338.620361
 21
41.273941
 31
0.0
210
0.0
220
0.0
230
1.0
  0
LINE
  5
75D
100
AcDbEntity
  8
0
370
    35
390
0
 62
     7
 48
0.004704
100
AcDbLine
 10
337.675171
 20
41.06369
 30
0.0
 11
337.523071
 21
40.952911
 31
0.0
210
0.0
220
0.0
230
1.0
  0
LINE
  5
75E
100
AcDbEntity
  8
0
370
    35
390
0
 62
     7
 48
0.009537
100
AcDbLine
 10
337.653198
 20
27.107681
 30
0.0
 11
337.315369
 21
27.284912
 31
0.0
210
0.0
220
0.0
230
1.0
  0
LINE
  5
75F
100
AcDbEntity
  8
0
370
    35
390
0
 62
     7
 48
0.028582
100
AcDbLine
 10
336.218079
 20
26.963882
 30
0.0
 11
337.315369
 21
27.284912
 31
0.0
210
0.0
220
0.0
230
1.0
  0
LINE
  5
760
100
AcDbEntity
  8
0
370
    35
390
0
 62
     7
 48
0.016967
100
AcDbLine
 10
336.218079
 20
26.963882
 30
0.0
 11
336.819092
 21
26.64859
 31
0.0
210
0.0
220
0.0
230
1.0
  0
LINE
  5
761
100
AcDbEntity
  8
0
370
    35
390
0
 62
     7
 48
0.351244
100
AcDbLine
 10
337.315369
 20
27.284912
 30
0.0
 11
338.620361
 21
41.273941
 31
0.0
210
0.0
220
0.0
230
1.0
  0
LINE
  5
762
100
AcDbEntity
  8
0
370
    35
390
0
 62
     7
 48
0.351244
100
AcDbLine
 10
337.523071
 20
40.952911
 30
0.0
 11
336.218079
 21
26.963882
 31
0.0
210
0.0
220
0.0
230
1.0
  0
LINE
  5
763
100
AcDbEntity
  8
0
370
    35
390
0
 62
     7
 48
0.004736
100
AcDbLine
 10
676.314514
 20
140.23555
 30
0.0
 11
676.467896
 21
140.34671
 31
0.0
210
0.0
220
0.0
230
1.0
  0
LINE
  5
764
100
AcDbEntity
  8
0
370
    35
390
0
 62
     7
 48
0.002574
100
AcDbLine
 10
676.314514
 20
140.23555
 30
0.0
 11
676.30426
 21
140.133118
 31
0.0
210
0.0
220
0.0
230
1.0
  0
LINE
  5
765
100
AcDbEntity
  8
0
370
    35
390
0
 62
     7
 48
0.000547
100
AcDbLine
 10
699.58551
 20
128.204056
 30
0.0
 11
699.576294
 21
128.223907
 31
0.0
210
0.0
220
0.0
230
1.0
  0
LINE
  5
766
100
AcDbEntity
  8
0
370
    35
390
0
 62
     7
100
AcDbLine
 10
676.467896
 20
140.34671
 30
0.0
 11
699.576294
 21
128.223907
 31
0.0
210
0.0
220
0.0
230
1.0
  0
LINE
  5
767
100
AcDbEntity
  8
0
370
    35
390
0
 62
     7
 48
0.02115
100
AcDbLine
 10
674.236572
 20
125.578583
 30
0.0
 11
675.048523
 21
125.816139
 31
0.0
210
0.0
220
0.0
230
1.0
  0
LINE
  5
768
100
AcDbEntity
  8
0
370
    35
390
0
 62
     7
 48
0.006696
100
AcDbLine
 10
674.20813
 20
125.312248
 30
0.0
 11
674.236572
 21
125.578583
 31
0.0
210
0.0
220
0.0
230
1.0
  0
LINE
  5
769
100
AcDbEntity
  8
0
370
    35
390
0
 62
     7
 48
0.009778
100
AcDbLine
 10
675.009583
 20
125.426971
 30
0.0
 11
675.048523
 21
125.816139
 31
0.0
210
0.0
220
0.0
230
1.0
  0
LINE
  5
76A
100
AcDbEntity
  8
0
370
    35
390
0
 62
     7
 48
0.009778
100
AcDbLine
 10
698.388306
 20
113.162384
 30
0.0
 11
698.427246
 21
113.551552
 31
0.0
210
0.0
220
0.0
230
1.0
  0
LINE
  5
76B
100
AcDbEntity
  8
0
370
    35
390
0
 62
     7
 48
0.013743
100
AcDbLine
 10
676.314514
 20
140.23555
 30
0.0
 11
675.786926
 21
140.081192
 31
0.0
210
0.0
220
0.0
230
1.0
  0
LINE
  5
76C
100
AcDbEntity
  8
0
370
    35
390
0
 62
     7
 48
0.013709
100
AcDbLine
 10
676.467896
 20
140.34671
 30
0.0
 11
675.941589
 21
140.192719
 31
0.0
210
0.0
220
0.0
230
1.0
  0
LINE
  5
76D
100
AcDbEntity
  8
0
370
    35
390
0
 62
     7
 48
0.004767
100
AcDbLine
 10
675.786926
 20
140.081192
 30
0.0
 11
675.941589
 21
140.192719
 31
0.0
210
0.0
220
0.0
230
1.0
  0
LINE
  5
76E
100
AcDbEntity
  8
0
370
    35
390
0
 62
     7
 48
0.002581
100
AcDbLine
 10
675.776001
 20
139.978546
 30
0.0
 11
675.786926
 21
140.081192
 31
0.0
210
0.0
220
0.0
230
1.0
  0
LINE
  5
76F
100
AcDbEntity
  8
0
370
    35
390
0
 62
     7
100
AcDbLine
 10
698.427246
 20
113.551552
 30
0.0
 11
675.048523
 21
125.816139
 31
0.0
210
0.0
220
0.0
230
1.0
  0
LINE
  5
770
100
AcDbEntity
  8
0
370
    35
390
0
 62
     7
 48
0.028584
100
AcDbLine
 10
676.497681
 20
140.123413
 30
0.0
 11
675.40033
 21
139.802368
 31
0.0
210
0.0
220
0.0
230
1.0
  0
LINE
  5
771
100
AcDbEntity
  8
0
370
    35
390
0
 62
     7
 48
0.004766
100
AcDbLine
 10
676.652283
 20
140.234924
 30
0.0
 11
676.497681
 21
140.123413
 31
0.0
210
0.0
220
0.0
230
1.0
  0
LINE
  5
772
100
AcDbEntity
  8
0
370
    35
390
0
 62
     7
 48
0.028582
100
AcDbLine
 10
675.554993
 20
139.91391
 30
0.0
 11
676.652283
 21
140.234924
 31
0.0
210
0.0
220
0.0
230
1.0
  0
LINE
  5
773
100
AcDbEntity
  8
0
370
    35
390
0
 62
     7
 48
0.004767
100
AcDbLine
 10
675.554993
 20
139.91391
 30
0.0
 11
675.40033
 21
139.802368
 31
0.0
210
0.0
220
0.0
230
1.0
  0
LINE
  5
774
100
AcDbEntity
  8
0
370
    35
390
0
 62
     7
100
AcDbLine
 10
676.652283
 20
140.234924
 30
0.0
 11
700.436401
 21
127.75766
 31
0.0
210
0.0
220
0.0
230
1.0
  0
LINE
  5
775
100
AcDbEntity
  8
0
370
    35
390
0
 62
     7
 48
0.006961
100
AcDbLine
 10
700.436401
 20
127.75766
 30
0.0
 11
700.552002
 21
127.504349
 31
0.0
210
0.0
220
0.0
230
1.0
  0
LINE
  5
776
100
AcDbEntity
  8
0
370
    35
390
0
 62
     7
 48
0.028582
100
AcDbLine
 10
674.996033
 20
126.076851
 30
0.0
 11
673.898743
 21
125.755821
 31
0.0
210
0.0
220
0.0
230
1.0
  0
LINE
  5
777
100
AcDbEntity
  8
0
370
    35
390
0
 62
     7
 48
0.009538
100
AcDbLine
 10
673.898743
 20
125.755821
 30
0.0
 11
674.236572
 21
125.578583
 31
0.0
210
0.0
220
0.0
230
1.0
  0
LINE
  5
778
100
AcDbEntity
  8
0
370
    35
390
0
 62
     7
 48
0.016973
100
AcDbLine
 10
699.050415
 20
113.457794
 30
0.0
 11
698.398804
 21
113.267151
 31
0.0
210
0.0
220
0.0
230
1.0
  0
LINE
  5
779
100
AcDbEntity
  8
0
370
    35
390
0
 62
     7
100
AcDbLine
 10
699.050415
 20
113.457794
 30
0.0
 11
674.996033
 21
126.076851
 31
0.0
210
0.0
220
0.0
230
1.0
  0
LINE
  5
77A
100
AcDbEntity
  8
0
370
    35
390
0
 62
     7
 48
0.353165
100
AcDbLine
 10
676.497681
 20
140.123413
 30
0.0
 11
674.996033
 21
126.076851
 31
0.0
210
0.0
220
0.0
230
1.0
  0
LINE
  5
77B
100
AcDbEntity
  8
0
370
    35
390
0
 62
     7
 48
0.353164
100
AcDbLine
 10
673.898743
 20
125.755821
 30
0.0
 11
675.40033
 21
139.802368
 31
0.0
210
0.0
220
0.0
230
1.0
  0
LINE
  5
77C
100
AcDbEntity
  8
0
370
    35
390
0
 62
     7
 48
0.353165
100
AcDbLine
 10
700.552002
 20
127.504349
 30
0.0
 11
699.050415
 21
113.457794
 31
0.0
210
0.0
220
0.0
230
1.0
  0
LINE
  5
77D
100
AcDbEntity
  8
0
370
    35
390
0
 62
     7
 48
0.000927
100
AcDbLine
 10
675.846069
 20
140.164795
 30
0.0
 11
675.878906
 21
140.147552
 31
0.0
210
0.0
220
0.0
230
1.0
  0
LINE
  5
77E
100
AcDbEntity
  8
0
370
    35
390
0
 62
     7
 48
0.004735
100
AcDbLine
 10
675.692749
 20
140.053619
 30
0.0
 11
675.846069
 21
140.164795
 31
0.0
210
0.0
220
0.0
230
1.0
  0
LINE
  5
77F
100
AcDbEntity
  8
0
370
    35
390
0
 62
     7
 48
0.002573
100
AcDbLine
 10
675.692749
 20
140.053619
 30
0.0
 11
675.682495
 21
139.951202
 31
0.0
210
0.0
220
0.0
230
1.0
  0
LINE
  5
780
100
AcDbEntity
  8
0
370
    35
390
0
 62
     7
 48
0.000898
100
AcDbLine
 10
675.494446
 20
139.870239
 30
0.0
 11
675.462646
 21
139.886902
 31
0.0
210
0.0
220
0.0
230
1.0
  0
LINE
  5
781
100
AcDbEntity
  8
0
370
    35
390
0
 62
     7
 48
0.004734
100
AcDbLine
 10
675.462646
 20
139.886902
 30
0.0
 11
675.309326
 21
139.775742
 31
0.0
210
0.0
220
0.0
230
1.0
  0
LINE
  5
782
100
AcDbEntity
  8
0
370
    35
390
0
 62
     7
 48
0.352196
100
AcDbLine
 10
673.906006
 20
125.75795
 30
0.0
 11
675.309326
 21
139.775742
 31
0.0
210
0.0
220
0.0
230
1.0
  0
LINE
  5
783
100
AcDbEntity
  8
0
370
    35
390
0
 62
     7
 48
0.009537
100
AcDbLine
 10
673.906006
 20
125.75795
 30
0.0
 11
674.243835
 21
125.580719
 31
0.0
210
0.0
220
0.0
230
1.0
  0
LINE
  5
784
100
AcDbEntity
  8
0
370
    35
390
0
 62
     7
 48
0.006678
100
AcDbLine
 10
674.243835
 20
125.580719
 30
0.0
 11
674.217224
 21
125.314926
 31
0.0
210
0.0
220
0.0
230
1.0
  0
LINE
  5
785
100
AcDbEntity
  8
0
370
    35
390
0
 62
     7
100
AcDbLine
 10
339.18573
 20
41.604462
 30
0.0
 11
675.692749
 21
140.053619
 31
0.0
210
0.0
220
0.0
230
1.0
  0
LINE
  5
786
100
AcDbEntity
  8
0
370
    35
390
0
 62
     7
 48
0.002574
100
AcDbLine
 10
339.18573
 20
41.604462
 30
0.0
 11
339.175476
 21
41.502029
 31
0.0
210
0.0
220
0.0
230
1.0
  0
LINE
  5
787
100
AcDbEntity
  8
0
370
    35
390
0
 62
     7
100
AcDbLine
 10
338.955688
 20
41.437729
 30
0.0
 11
675.462646
 21
139.886902
 31
0.0
210
0.0
220
0.0
230
1.0
  0
LINE
  5
788
100
AcDbEntity
  8
0
370
    35
390
0
 62
     7
 48
0.004734
100
AcDbLine
 10
338.955688
 20
41.437729
 30
0.0
 11
338.802368
 21
41.326584
 31
0.0
210
0.0
220
0.0
230
1.0
  0
LINE
  5
789
100
AcDbEntity
  8
0
370
    35
390
0
 62
     7
100
AcDbLine
 10
338.802368
 20
41.326584
 30
0.0
 11
675.309326
 21
139.775742
 31
0.0
210
0.0
220
0.0
230
1.0
  0
LINE
  5
78A
100
AcDbEntity
  8
0
370
    35
390
0
 62
     7
100
AcDbLine
 10
337.399048
 20
27.308792
 30
0.0
 11
673.906006
 21
125.75795
 31
0.0
210
0.0
220
0.0
230
1.0
  0
LINE
  5
78B
100
AcDbEntity
  8
0
370
    35
390
0
 62
     7
 48
0.009537
100
AcDbLine
 10
337.399048
 20
27.308792
 30
0.0
 11
337.736877
 21
27.131561
 31
0.0
210
0.0
220
0.0
230
1.0
  0
LINE
  5
78C
100
AcDbEntity
  8
0
370
    35
390
0
 62
     7
100
AcDbLine
 10
337.736877
 20
27.131561
 30
0.0
 11
674.243835
 21
125.580719
 31
0.0
210
0.0
220
0.0
230
1.0
  0
LINE
  5
78D
100
AcDbEntity
  8
0
370
    35
390
0
 62
     7
 48
0.006678
100
AcDbLine
 10
337.736877
 20
27.131561
 30
0.0
 11
337.710266
 21
26.865768
 31
0.0
210
0.0
220
0.0
230
1.0
  0
LINE
  5
78E
100
AcDbEntity
  8
0
370
    35
390
0
 62
     7
 48
0.352196
100
AcDbLine
 10
337.399048
 20
27.308792
 30
0.0
 11
338.802368
 21
41.326584
 31
0.0
210
0.0
220
0.0
230
1.0
  0
LINE
  5
78F
100
AcDbEntity
  8
0
370
    35
390
0
 62
     7
100
AcDbLine
 10
339.339111
 20
41.715622
 30
0.0
 11
675.846069
 21
140.164795
 31
0.0
210
0.0
220
0.0
230
1.0
  0
LINE
  5
790
100
AcDbEntity
  8
0
370
    35
390
0
 62
     7
 48
0.004736
100
AcDbLine
 10
339.18573
 20
41.604462
 30
0.0
 11
339.339111
 21
41.715622
 31
0.0
210
0.0
220
0.0
230
1.0
  0
ENDSEC
  0
SECTION
  2
OBJECTS
  0
DICTIONARY
  5
19
100
AcDbDictionary
280
     0
281
     1
  3
ACAD_GROUP
350
1A
  3
ACAD_MLINESTYLE
350
1B
  3
ACAD_LAYOUT
350
1E
  3
ACAD_PLOTSETTINGS
350
22
  3
ACAD_PLOTSTYLENAME
350
1F
  3
ACAD_WIPEOUT_VARS
350
23
  0
DICTIONARY
  5
1A
102
{ACAD_REACTORS
330
19
102
}
100
AcDbDictionary
280
     0
281
     1
  0
DICTIONARY
  5
1B
102
{ACAD_REACTORS
330
19
102
}
100
AcDbDictionary
280
     0
281
     1
  3
Standard
350
1C
  0
MLINESTYLE
  5
1C
102
{ACAD_REACTORS
330
1B
102
}
100
AcDbMlineStyle
  2
Standard
 70
     0
  3

 62
     0
 51
90.0
 52
90.0
 71
     2
 49
0.5
 62
   256
  6
ByLayer
 49
-0.5
 62
   256
  6
ByLayer
  0
ACDBDICTIONARYWDFLT
  5
1F
102
{ACAD_REACTORS
330
19
102
}
100
AcDbDictionary
281
     1
  3
Normal
350
1D
100
AcDbDictionaryWithDefault
340
1D
  0
ACDBPLACEHOLDER
  5
1D
102
{ACAD_REACTORS
330
1F
102
}
  0
LAYOUT
  5
20
102
{ACAD_REACTORS
330
1E
102
}
100
AcDbPlotSettings
  1

  2

  4

  6

 40
0.0
 41
0.0
 42
0.0
 43
0.0
 44
0.0
 45
0.0
 46
0.0
 47
0.0
 48
0.0
 49
0.0
140
0.0
141
0.0
142
1.0
143
1.0
 70
  1024
 72
     0
 73
     0
 74
     0
  7

 75
     0
147
1.0
148
0.0
149
0.0
100
AcDbLayout
  1
Model
 70
     0
 71
     0
 10
0.0
 20
0.0
 11
0.0
 21
0.0
 12
0.0
 22
0.0
 32
0.0
 14
0.0
 24
0.0
 34
0.0
 15
0.0
 25
0.0
 35
0.0
146
0.0
 13
0.0
 23
0.0
 33
0.0
 16
0.0
 26
0.0
 36
0.0
 17
0.0
 27
0.0
 37
0.0
 76
     0
330
A
331
0
345
0
346
0
  0
LAYOUT
  5
21
102
{ACAD_REACTORS
330
1E
102
}
100
AcDbPlotSettings
  1

  2

  4

  6

 40
0.0
 41
0.0
 42
0.0
 43
0.0
 44
0.0
 45
0.0
 46
0.0
 47
0.0
 48
0.0
 49
0.0
140
0.0
141
0.0
142
1.0
143
1.0
 70
     0
 72
     0
 73
     0
 74
     0
  7

 75
     0
147
1.0
148
0.0
149
0.0
100
AcDbLayout
  1
Layout1
 70
     0
 71
     0
 10
0.0
 20
0.0
 11
0.0
 21
0.0
 12
0.0
 22
0.0
 32
0.0
 14
0.0
 24
0.0
 34
0.0
 15
0.0
 25
0.0
 35
0.0
146
0.0
 13
0.0
 23
0.0
 33
0.0
 16
0.0
 26
0.0
 36
0.0
 17
0.0
 27
0.0
 37
0.0
 76
     0
330
B
331
0
345
0
346
0
  0
DICTIONARY
  5
1E
102
{ACAD_REACTORS
330
19
102
}
100
AcDbDictionary
280
     0
281
     1
  3
Layout1
350
21
  3
Model
350
20
  0
DICTIONARY
  5
22
102
{ACAD_REACTORS
330
19
102
}
100
AcDbDictionary
280
     0
281
     1
  0
WIPEOUTVARIABLES
  5
23
100
AcDbWipeoutVariables
 70
     1
  0
ENDSEC
  0
EOF
